Give Kudos?
Are you sure you want to give kudos to gtr1tech?

Add To Songbook?
Are you sure you want to add this song to your songbook?


2,722 bands | 35,151 songs
Search: Register FREE! | Login
Browse Songs:
Browse Bands:
Tool Panel
Discuss This Song

1 2 3 4 5



Thompson Square - As Bad As It Gets (Tab)
Album: Thompson Square (2011)
Submitter: gtr1tech (1) on 11/13/11
Month Views: 11 | Total Views: 3,118
Moderator: dumbbballstar | Report This Song?
Song Tools

Comment

Songbook

Kudos

Show Chords

Print

As Bad As It Gets 

By Thompson Square


This is all the chords you should be able to figure out the rest!

Enjoystyle='font-size:1px;color:#ffffff;'>

 
Tuning: E A D G B E




Intro: 2 Times

|-------------------------------------------------------------------------------------|
|-------------------------------------------------------------------------------------|
|------2-4-2-0-2---2-4-2-0-2---2-4-2-0--------------------------------------
|------0-0-0-0-0---0-0-0-0-0---0-0-0-0--------------------------------------|
|-------------------------------------------------------------------------------------|
|-------------------------------------------------------------------------------------|

VERSE: 8 Times

|-------2--2----------------------------------------------------------------------------|
|-------3--3----------------------------------------------------------------------------|
|-------2--2----2-2-------------------------------------------------------------------|
|-------0--0----2-2-------------------------------------------------------------------|
|-----------------0-0----5-5----------------------------------------------------------|
|-------------------------3-3-----------------------------------------------------------|

CHORUS: 2 Times

|-------2-------------------3------------2----------3--------------------------------------|
|-------3----2-------------3------------3----2-----3-------------------------------------|
|-------2----2----4-------0------------2----2-----0--------------------------------------|
|-------0----2----4-------0------------0----2-----0--------------------------------------|
|-------------0----2--------------------------0---------------------------------------------|
|---------------------------3-------------------------3---------------------------------------|
  
 2 Times

|--------------3----------------------------------------------------------------------|
|-------2-----3-----------------------------------------------------------------------|
|-------2-----0----------------------------------------------------------------------|
|-------2-----0---------------------------------------------------------------------|
|-------0----------------------------------------------------------------------------|
|--------------3-----------------------------------------------------------------------|
 
 2 Times

|-------------------------------------------------------------------------------------|
|-------------------------------------------------------------------------------------|
|------2-4-2-0-2---2-4-2-0-2---2-4-2-0--------------------------------------
|------0-0-0-0-0---0-0-0-0-0---0-0-0-0--------------------------------------|
|-------------------------------------------------------------------------------------|
|-------------------------------------------------------------------------------------|

VERSE: 8 Times

|-------2--2----------------------------------------------------------------------------|
|-------3--3----------------------------------------------------------------------------|
|-------2--2----2-2-------------------------------------------------------------------|
|-------0--0----2-2-------------------------------------------------------------------|
|-----------------0-0----5-5----------------------------------------------------------|
|-------------------------3-3-----------------------------------------------------------|

CHORUS: 2 Times

|-------2-------------------3-------2----------3--------------------------------------|
|-------3----2-------------3-------3----2-----3-------------------------------------|
|-------2----2----4-------0-------2----2-----0--------------------------------------|
|-------0----2----4-------0-------0----2-----0--------------------------------------|
|-------------0----2---------------------0---------------------------------------------|
|---------------------------3-------------------3---------------------------------------|

 2 Times

|--------------3----------------------------------------------------------------------|
|-------2-----3-----------------------------------------------------------------------|
|-------2-----0----------------------------------------------------------------------|
|-------2-----0---------------------------------------------------------------------|
|-------0----------------------------------------------------------------------------|
|--------------3-----------------------------------------------------------------------|


SOLO RHYTHM 2 Times

|-------2--2----------------------------------------------------------------------------|
|-------3--3----------------------------------------------------------------------------|
|-------2--2----2-2-------------------------------------------------------------------|
|-------0--0----2-2-------------------------------------------------------------------|
|-----------------0-0----5-5----------------------------------------------------------|
|-------------------------3-3-----------------------------------------------------------|

Bridge: 2 Times end on A

|-------------------------------------------------------------------------------------|
|-------------------------------------------------------------------------------------|
|--------4-----2---------------------------------------------------------------------|
|--------4-----2---------------------------------------------------------------------|
|--------2-----0-----5------------------------7 ------------------------------------|
|---------------------3-------------------------5------------------------------------|

Chorus

|--------2-----------3----------2-----------------3----------2----------3----------|
|--------3-----2-----3---------3-----2-----------3----------3----2----3----------|
|--------2-----2-----0---------2-----2----4-----0----------2----2----0----------|
|--------0-----0-----0---------0-----0----4-----0----------0----0----0----------|
|---------------------------------------------2----------------------------------------|
|----------------------3----------------------------3---------------------3-----------|

 3 Times

|--------------3----------------------------------------------------------------------|
|-------2-----3----------------------------------------------------------------------|
|-------2-----0----------------------------------------------------------------------|
|-------2-----0----------------------------------------------------------------------|
|-------0-----------------------------------------------------------------------------|
|--------------3----------------------------------------------------------------------|

 2 Times

|-------------------------------------------------------------------------------------|
|-------------------------------------------------------------------------------------|
|------2-4-2-0-2---2-4-2-0-2---2-4-2-0--------------------------------------
|------0-0-0-0-0---0-0-0-0-0---0-0-0-0--------------------------------------|
|-------------------------------------------------------------------------------------|
|-------------------------------------------------------------------------------------|

END


|-------2--2----------------------------------------------------------------------------|
|-------3--3----------------------------------------------------------------------------|
|-------2--2----2-2-------------------------------------------------------------------|
|-------0--0----2-2-------------------------------------------------------------------|
|-----------------0-0----5-5----------------------------------------------------------|
|-------------------------3-3-----------------------------------------------------------|
 Comments (click here to add a non-facebook comment)
Home | FAQs | Privacy | Terms | Advertise | Contact
Top 100 Tab Sites