Give Kudos?
Are you sure you want to give kudos to MusicCrazy12?

Add To Songbook?
Are you sure you want to add this song to your songbook?


2,634 bands | 34,497 songs
Search: Register FREE! | Login
Browse Songs:
Browse Bands:
Tool Panel
Discuss This Song

1 2 3 4 5





Thomas Rhett - Something To Do With My Hands (Tab)
Submitter: MusicCrazy12 (1) on 7/3/12 2 comments
Month Views: 56 | Total Views: 8,413
Moderator: coreySrocks | Report This Song?
Song Tools

Comment

Songbook

Kudos

Show Chords

Print

d#---------------------------------------------
A#---------------------------------------------
F#---0-0-0----0-0-0-0---0-0-0-0----------------
C#---7-7-7----5-5-5-5---4-4-4-4-------2-2-2---- Play 3 times through then play 2nd part
G#---0-0-0----0-0-0-0---0-0-0-0-------3-0-3----
D#---------------------------------------------

d#------------------------------------------------------------
A#--2-2-2-2-2-2-----------------------------------------------
F#--2-2-2-2-2-2-2-2-2-2-2-2-----------------------------------
C#--2-2-2-2-2-2-2-2-2-2-2-2-4-4-4-4-4-4--5-5-5-5-5-5---------- Play this once 
G#--------------2-2-2-2-2-2-4-4-4-4-4-4--5-5-5-5-5-5---------- Then repeat the 1st part once and back 
D#--------------------------2-2-2-2-2-2--3-3-3-3-3-3---------- to the 2nd part 
(Half Step Down)
 Comments (click here to add a non-facebook comment)
This tab is perfect. Great Job
-andyjames | 7/22/2012
Hammer on and off on the 4th fret with the A and E and you got it
-moman003 | 7/28/2012
Home | FAQs | Privacy | Terms | Advertise | Contact
Top 100 Tab Sites