Give Kudos?
Are you sure you want to give kudos to laurren?

Add To Songbook?
Are you sure you want to add this song to your songbook?


2,682 bands | 34,890 songs
Search: Register FREE! | Login
Browse Songs:
Browse Bands:
Tool Panel
Discuss This Song

1 2 3 4 5





Taylor Swift - I'm Only Me When I'm With You (Tab)
Album: Taylor Swift (2006)
Submitter: laurren (4) on 5/10/09
Month Views: 12 | Total Views: 6,465
Moderator: e8n1 | Report This Song?
Song Tools

Comment

Songbook

Kudos

Show Chords

Print

Capo 1
Standard tuning
I tabbed this out back in 2006-2007

 (Play this a few times)
E--3----------------
B--5----------------
G------------------
D------------------
A------------------
E------------------
Friday night beneath the stars

 (Play this a few times)
E--2----------------
B--5----------------
G------------------
D------------------
A------------------
E------------------
In a field, behind your yard

 
(Play 2-3 times)
E------------------
B--3----------------
G--5----------------
D------------------
A------------------
E------------------
You and I are painting


(Play 2-3 times)
E------------------
B--2----------------
G------------------
D------------------
A------------------
E------------------
Pictures


(Play 2-3 times)
E------------------
B------------------
G--2----------------
D------------------
A------------------
E------------------
In the


(Play 3-4 times)
E------------------
B------------------
G------------------
D--2----------------
A------------------
E------------------
Sky


(Play this a few times)
E--3----------------
B--5----------------
G------------------
D------------------
A------------------
E------------------
And sometimes we don't say a thing

 (Play this a few times)
E--2----------------
B--5----------------
G------------------
D------------------
A------------------
E------------------
Just listen to the crickets sing

 
(Play 2-3 times)
E------------------
B--3----------------
G--5----------------
D------------------
A------------------
E------------------
Everything I need 


(Play 2-3 times)
E------------------
B--2----------------
G------------------
D------------------
A------------------
E------------------
is right here


(Play 2-3 times)
E------------------
B------------------
G--2----------------
D------------------
A------------------
E------------------
In your


(Play 3-4 times)
E------------------
B------------------
G------------------
D--2----------------
A------------------
E------------------
Eyes
   

C(onestrum)           Em(onestrum)
And I know everything about you
Am(onestrum)            D(a few strums then one last one palm muted)
I don't wanna live without you


    G
I'm only up when you're not down
      D                                  Am
Don't wanna fly if you're still on the ground
     C       G      C      D
It's like no matter what I do
         G
Well you drive me crazy half the time
    D
The other half I'm only trying to
Am      C         G      C       D
Let you know that what I feel is true
    C        Em      D        G D Am C x2
And I'm only me when I'm with you



(Play this a few times)
E--3----------------
B--5----------------
G------------------
D------------------
A------------------
E------------------
Just a small town boy and girl

 (Play this a few times)
E--2----------------
B--5----------------
G------------------
D------------------
A------------------
E------------------
Livin' in a crazy world

 
(Play 2-3 times)
E------------------
B--3----------------
G--5----------------
D------------------
A------------------
E------------------
Tryin' to figure out what is and isn't true


(Play this a few times)
E--3----------------
B--5----------------
G------------------
D------------------
A------------------
E------------------
And I don't try to hide my 

 (Play this a few times)
E--2----------------
B--5----------------
G------------------
D------------------
A------------------
E------------------
tears. All my worries and 

 
(Play 2-3 times)
E------------------
B--3----------------
G--5----------------
D------------------
A------------------
E------------------
deepest fears.



(Play 2-3 times)
E------------------
B--2----------------
G------------------
D------------------
A------------------
E------------------
through it all


(Play 2-3 times)
E------------------
B------------------
G--2----------------
D------------------
A------------------
E------------------
nobody gets me


(Play 3-4 times)
E------------------
B------------------
G------------------
D--2----------------
A------------------
E------------------
like you do



   C(one strum)            Em(one strum)
And you know everything about me
    Am(one strum)                 D(a few strums and last one palm muted)
You say that you can't live without me


    G
I'm only up when you're not down
      D                                  Am
Don't wanna fly if you're still on the ground
     C       G      C      D
It's like no matter what I do
         G
Well you drive me crazy half the time
    D
The other half I'm only trying to
Am      C         G      C       D
Let you know that what I feel is true
    C        Em      D        G D Am C x2
And I'm only me when I'm with you


Em (one strum)
 When I'm with anybody else
C(one strum)            Am (one strum)
 It's so hard to be myself
                 C (one strum)
 And only you can tell


    G
I'm only up when you're not down
      D                                  Am
Don't wanna fly if you're still on the ground
     C       G      C      D
It's like no matter what I do
         G
Well you drive me crazy half the time
    D
The other half I'm only trying to
Am      C         G      C       D
Let you know that what I feel is true
    C        Em      D        G D Am C 
And I'm only me when I'm with you

     G D Am C       G
With you,     oh ho ho yeah
 Comments (click here to add a non-facebook comment)
Home | FAQs | Privacy | Terms | Advertise | Contact
Top 100 Tab Sites