Give Kudos?
Are you sure you want to give kudos to Niki?

Add To Songbook?
Are you sure you want to add this song to your songbook?


2,711 bands | 35,094 songs
Search: Register FREE! | Login
Browse Songs:
Browse Bands:
Tool Panel
Discuss This Song

1 2 3 4 5



Steve Wariner - Waikiki '79 (lap steel guitar C6th) (Tab)
Submitter: Niki (0) on 1/19/15
Month Views: 80 | Total Views: 5,331
Moderator: Seandoherty | Report This Song?
Song Tools

Comment

Songbook

Kudos

Show Chords

Print

Author/Artist: Steve Wariner
Album:Guitar Laboratory (2011)
Title: Waikiki '79

C6th (ECAGEC)




F           Bb          Bb    Bdim7  F                     C7                        F
----------|------------|-----------|----------|----------|---------|---------------|-------------|
----------|------------|-----------|----------|----------|---------|---------------|-------------|
----------|----8/10----|-7/8-7-----|---3/5----|----------|---------|---------------|-------------|
--------5-|-/9------10-|-------7---|-4------5-|--------5-|-4/5/4-3-|---10----------|-5-----------|
------5---|---------10-|-----------|--------5-|------5---|---------|10----10/12/10-|-5-----------|
----5-----|------------|-----------|----------|--0-5-----|---------|------10/12/10-|-------------|




                   
 F         Bb           Bb     Bdim7    F                      C7                           F
---------|------------|---------------|-----------|----------|----------|-----------------|---------|
---------|------------|---------------|-----------|----------|----------|9/10/9-----------|---------|
---------|----8/10----|---------------|---3/5-----|----------|----------|-------10---8/10-|---------|
-------5-|-/9------10-|-9-10----------|-4-----5---|------5---|-4/5/4/3--|----------9------|-10------|
-----5---|---------10-|-9-10-12/10-10-|-4-----5---|-----5----|----------|-----------------|---------|
---5-----|------------|------12/10-10-|-----------|--0-5-----|----------|-----------------|---------|


 F         G7                  Bb              F         G7                 Bb         Bbm
---------|---------|---------|---------------|---------|10-12-12/13/12/10-|-10-12/13/9-9----------|
---------|-4-4/7-5-|-4/5-4-5-|-9-7-----------|---------|------------------|--------------12/10-10-|
---------|---------|---------|-----8/7-7-----|---------|------------------|-----------------------|
-------5-|---------|---------|-----------7/5-|-5-------|------------------|-----------------------|
-----5---|---------|---------|---------------|-5-------|------------------|-----------------------|
---5-----|---------|---------|---------------|---------|------------------|-----------------------|


  C7         
---------------|-------------|
---------------|-------------|
---------------|-------------|
--12-10---10---|-------------|
--12----10--10-|-12----------|
---------------|-12----------|


F          Bb         Bb     Bdim7    F                       C7                           F
---------|----------|---------------|-------------|------5--|----------|-----------------|--------|
---------|----------|---------------|-------------|----5----|-12-11-10-|-9/10/9/7--------|--------|
---------|-7-7/10-8-|---------------|-------------|---------|----------|----------7-8/10-|--------|
-------5-|----------|-9-10----------|-4-5/6/5/4-5-|--5------|----------|-----------------|-10-----|
-----5---|----------|-9-10-10/12-10-|-4---------5-|---------|-12-11-10-|-----------------|--------|
---5-----|----------|------10/12-10-|-------------|---------|----------|-----------------|--------|








the second part after the guitar solo






F              Bb            Bb      Bdim7    F                       C7
-------------|-12-12/15-13-|----------------|-------------|-------5-|-------------|
----------12-|-------------|----17-16/14-14-|-11-11/14-12-|---4/5---|-12-11-10----|
----10/12----|-------------|-17-------------|-11-------12-|---------|-------------|
-10----------|-------------|----------------|-------------|-5-------|-------------|
-------------|-------------|----------------|-------------|---------|-12-11-10----| 
-------------|-------------|----------------|-------------|---------|-------------


C7              F
--------------|------------|
-/14/12/10/7/-|-9/5--------|
--------------|------------|
--------------|------------|
--------------|------------|
--------------|------------|

 F             Bb            Bb     Bdim7     F                       C7
-------------|-12-12/15-13-|----------------|-------------|-------5-|-------------
----------12-|-------------|----17-16/14-14-|-11-11/14-12-|---4/5---|---12-11-10--
----10/12----|-------------|-17-------------|-11-------12-|---------|-------------
-10----------|-------------|----------------|-------------|-5-------|-------------
-------------|-------------|----------------|-------------|---------|-12---11-10--
-------------|-------------|----------------|-------------|---------|-------------



C7                 F     C#       F
-----------------|-----------1-|-/5--------| 
-9/10/9/7--------|-----------1-|-/5--------| 
----------7-8/10-|-------------|-----------| 
-----------------|-10-------1--|-/5--------| 
-----------------|---------1---|-/5--------| 
-----------------|-------1-----|-/5--------| 


 Comments (click here to add a non-facebook comment)
Home | FAQs | Privacy | Terms | Advertise | Contact
Top 100 Tab Sites