Give Kudos?
Are you sure you want to give kudos to Niki?

Add To Songbook?
Are you sure you want to add this song to your songbook?


2,707 bands | 35,037 songs
Search: Register FREE! | Login
Browse Songs:
Browse Bands:
Tool Panel
Discuss This Song

1 2 3 4 5



Steve Wariner - Waikiki '79 (guitar solo) (Tab)
Submitter: Niki (0) on 1/19/15
Month Views: 18 | Total Views: 1,604
Moderator: Seandoherty | Report This Song?
Song Tools

Comment

Songbook

Kudos

Show Chords

Print

Author/Artist: Steve Wariner
Album:Guitar Laboratory (2011)
Title: Waikiki '79
 



----------------------------------------7/10-8-10-8----8-6----------8--8--10-8--6----------
-------------5-6/8-6----------------6-9-------------10-----8-5------10-10-10-10-8-6--------
-----------5---------9b(10)-9-7---7------------------------------5--9--9--9--9--7-5-3------
-3-3-5/7-7----------------------9------------------------------8------------------7-3-3-3--
--------------------------------------------------------------------------------------5-3--
-------------------------------------------------------------------------------------------
                                                                              

----------------------------------------------------7/8-10-8-13-12h13p12-10-8-6------/8-7-6----------
------------5-6-8b(9)r8p6-6---5/6-6-5h6p5-------6-9-----------------------------5/3-----------5-8-6--
----------5-------------------------------7---7-----------------------------9-7-5/3---------5-----5--
--3-3-5/7-----------------------------------9-----------------------------------------------------7--
-----------------------------------------------------------------------------------------------------
-----------------------------------------------------------------------------------------------------
                                                                              

--------------------------------------------------------------------------------------------12-13-9-9-8h9p8----------8-8-
-----------------5*-6*-8*-6*-6*-5*-6*-8*/10-6*-5*---------------5*-6*---------5-6-5h6p5---6-----------------11-8---6---5-
--------------5*----------------------------------7*5*-------5*-------5*--5/7-----------7------------------------7-----5-
--3*-3*-5*/7*------------------------------------------8*-7*-----------------------------------------------------8-----8-
-------------------------------------------------------------------------------------------------------------------------
-------------------------------------------------------------------------------------------------------------------------



----------------------------------------7-8/10-7-8---13-12-----------------------5-6-----------------------
-----------5-6-6/8-6----------------6-9--------------------13----13-11---------------8-5---5-8-6-------6*--
---------5-----------9b(10)-9-7---7---------------------------14-------12--------------5---5---5-----5*----
-3-3-5/7------------------------9-----------------------------------------10-9-8---------8-----7---7*------
-------------------------------------------------------------------------------------------------8*--------
-----------------------------------------------------------------------------------------------------------



* harmonic
 Comments (click here to add a non-facebook comment)
Home | FAQs | Privacy | Terms | Advertise | Contact
Top 100 Tab Sites