Give Kudos?
Are you sure you want to give kudos to guitarviper?

Add To Songbook?
Are you sure you want to add this song to your songbook?


2,700 bands | 34,999 songs
Search: Register FREE! | Login
Browse Songs:
Browse Bands:
Tool Panel
Discuss This Song

1 2 3 4 5



Steve Wariner - Lynda (Intro)
Album: It's A Crazy World (1987)
Submitter: guitarviper (12) on 9/18/02
Month Views: 29 | Total Views: 3,781
Moderator: Seandoherty | Report This Song?
Song Tools

Comment

Songbook

Kudos

Show Chords

Print

Steve Wariner
Lynda 
Guitarviper

Key: p = pulloff    bv = bend down
     h = hammer-on  br = release bend
     b^= bend up

Intro:
----------------------------------------------------------------------------------------
----------------------------------------------------------------------------------------
----------------------------------------------------------------------------------------
--12p10-10p9-9p7-7p5-7p5-----------------------------------12p10-10p9-9p7-7p5-7p5-------
-------------------------7bv-5-5-5-7b^r-5h7-7b^r-5h7-5----------------------------7bv-5-
-------------------------------------------------------6-3------------------------------

------------------------------------
------------------------------------
-----------------3------------------
---------------5---5-3-5-3----------
--5-5-7b^r-5h7-------------3bv-0-2--
------------------------------------
 Comments (click here to add a non-facebook comment)
Home | FAQs | Privacy | Terms | Advertise | Contact
Top 100 Tab Sites