Give Kudos?
Are you sure you want to give kudos to sasjrocket?

Add To Songbook?
Are you sure you want to add this song to your songbook?


2,732 bands | 35,223 songs
Search: Register FREE! | Login
Browse Songs:
Browse Bands:
Tool Panel
Discuss This Song

1 2 3 4 5



Shania Twain - From This Moment On (version 2) (Tab)
Album: Greatest Hits (2004)
Submitter: sasjrocket (0) on 3/17/05
Month Views: 3 | Total Views: 4,876
Moderator: Ray Terry | Report This Song?
Song Tools

Comment

Songbook

Kudos

Show Chords

Print

Intro
------15-14-15----------15-14-15------------15-14-15-----
----------------12--13------------13--15---------------15
-12------------------------------------------------------
---------------------------------------------------------
---------------------------------------------------------
---------------------------------------------------------

---------14------15----------------------------------
-----15------15--------------------------------------
-14--------------------------------------------------
-----------------------------------------------------
-----------------------------------------------------
-----------------------------------------------------

Solo
------12-14-14----------------------------------------
------------------------------------------------------
--14------------16b-vvvvvvvv------16--14--13-11vvvvvvv/
------------------------------------------------------
------------------------------------------------------
------------------------------------------------------

-16-----16-17b-17b--------------19b-------------------
----17---------------15----17-------------------------
------------------------------------------------------
------------------------------------------------------
------------------------------------------------------
------------------------------------------------------

Fill after: ....and you're the answers to my prayers from up above

----------
----------
----------
----------
-----2---0
--2-------

This is my first tab, so if it is incorrect forgive me.
 Comments (click here to add a non-facebook comment)
Home | FAQs | Privacy | Terms | Advertise | Contact
Top 100 Tab Sites