Give Kudos?
Are you sure you want to give kudos to viperdrew?

Add To Songbook?
Are you sure you want to add this song to your songbook?


2,632 bands | 34,462 songs
Search: Register FREE! | Login
Browse Songs:
Browse Bands:
Tool Panel
Discuss This Song

1 2 3 4 5





Roger Creager - L.a. Freeway (Intro)
Album: Live Across Texas (2004)
Submitter: viperdrew (0) on 8/23/04 2 comments
Month Views: 42 | Total Views: 8,369
Moderator: gonna_b_sumbody | Report This Song?
Song Tools

Comment

Songbook

Kudos

Show Chords

Print

L.A. Freeway
 INTRO

  I just sort of messed around with it and I think this is
pretty close to what it is. Just play around with it and 
you'll get the rythm and everything.

|-------0------------------------2---5--5-4-2-0-|
|-------2---3-2-0--2-0-----------3--------------|
|-----2----------------2-------2----------------|
|---2------------------------0------------------|
|-0------------------------0--------------------|
|-----------------------------------------------|

|------0-------------------------0---0-0-----------|
|------2--3-2-0--2-0-------------0-------3-2-0-2-0-|
|----2---------------2---------1-------------------|
|--2-------------------------2---------------------|
|0-------------------------2-----------------------|
|--------------------------------------------------|
                       
                       REPEAT OVER 

Thats it...just repeat over and over....it needs some work
but you can listen to it and play with it. If anybody has  
any corrections or anything feel free to say.
  
drew
 Comments (click here to add a non-facebook comment)
that sounds great, when you play it along with the song stum the chords and then at the end of each line sturm that into in with the chords, sounds great
-bobjammie | 8/6/2005
yeah this tab is wrong, nice try though
-jb09 | 12/20/2005
Home | FAQs | Privacy | Terms | Advertise | Contact
Top 100 Tab Sites