Give Kudos?
Are you sure you want to give kudos to axehappy?

Add To Songbook?
Are you sure you want to add this song to your songbook?


2,668 bands | 34,785 songs
Search: Register FREE! | Login
Browse Songs:
Browse Bands:
Tool Panel
Discuss This Song

1 2 3 4 5





Rodney Crowell - Stars On The Water (Lead)
Album: The Essential Rodney Crowell (2004)
Submitter: axehappy (112) on 1/18/02
Month Views: 101 | Total Views: 14,223
Moderator: Ray Terry | Report This Song?
Song Tools

Comment

Songbook

Kudos

Show Chords

Print

Rodney Crowell - Stars On The Water (with lead)

By axehappy - axehappy at countrytabs.com


A     =   x02220        F#m     =   244222

***********************************************************************


A     F#m     A
INTRO


A 
Down in Louisiana bayous by and by, 

Perogue pole or your natural soul 

Keeps you tied to a tree high tide. 
F#m
Beer joint lights come on, 
             A 
And then the crowd starts rollin' in. 


 
Pretty soon you got stars on the water 

Just like stars on the water 
        F#m                        A
You got stars on the water, let it rain 


A
Beaumont to Biloxi, 

Sea breeze at your door. 

Gypsy rains, dang hurricanes 

White silver sandy shores. 
    F#m
The Blue Light lounge is shinin' 
A  
Way out on the view. 


 
It looks just like stars on the water 
          
Just like stars on the water 
          F#m                        A
Just like stars on the water, let it rain 


A    F#m    A  
INSTRUMENTAL


A
When it's midnight down in Mobile, 

Shinin' moonbeams on the bay, 

They come from miles around to dance the jukebox down 

And dig the good time sounds they all play. 
    F#m 
And all across the harbour, 
A
Night lights shinin' on. 



It looks just like stars on the water, 

Just like stars on the water, 
                F#m                        A 
Feels just like stars on the water, let it rain. 



Pretty soon you got stars on the water,

You got stars on the water,
        F#m                        A
You got stars on the water, let it rain.


***********************************************************************


Riff over A throughout song:


E--------------------------------
B--------------------------------
G-----------------2--------------
D--2-2----2-2-4-2-2-2-4-4----2---
A--0--3-4-0------------4--3h4----
E--------------------------------


Riff over F#m throughout song:


E----------------------------------
B----------------------------------
G----------------------------------
D---------2-2-4-2--------2-2---2---
A--4-4-2-4--------4-4-2-4---2h4----
E--2-2------------2-2--------------



LEAD SOLO


E---------------------------------------------10---------------------
B-----10-12b-12b-12b-12br-10-10h12-10---10-12b--12b-12r-p10--12--10--
G--7/9--9----------------------------7/9--9----------------11--11----
D--------------------------------------------------------------------
A--------------------------------------------------------------------
E--------------------------------------------------------------------


E-----------10-------------------12b-12-10p9----------------
B-----10-12b--12b-12r-p10----10-------------12b-12br-p10----
G--7/9--9----------------9/11--11-----------------------11--
D-----------------------------------------------------------
A-----------------------------------------------------------
E-----------------------------------------------------------


E-----10--------------------------------------------------------
B--12b--12b-12br-p10--12--10--10-----------7--------------------
G-------------------11--11------9pbr-6-9b-9-9br-p6-9p6----------
D-----------------------------------------------------10p9p7-7--
A-----------------------------------------------------------9---
E---------------------------------------------------------------


E-----------------------------------------------------|
B-------10-12b-12r-10--12--10--7---7------------------|
G------9-------------11--11-----6-9-9pbr-9pbr-7-9-7---|
D--9/11----------------------------------------9-9----|
A-----------------------------------------------------|
E-----------------------------------------------------|
 Comments (click here to add a non-facebook comment)
Home | FAQs | Privacy | Terms | Advertise | Contact
Top 100 Tab Sites