Give Kudos?
Are you sure you want to give kudos to axehappy?

Add To Songbook?
Are you sure you want to add this song to your songbook?


2,681 bands | 34,877 songs
Search: Register FREE! | Login
Browse Songs:
Browse Bands:
Tool Panel
Discuss This Song

1 2 3 4 5





Rodney Crowell - I Walk The Line (revisited) (Solo)
Album: The Essential Rodney Crowell (2004)
Submitter: axehappy (81) on 6/17/02 1 comment
Month Views: 13 | Total Views: 4,678
Moderator: Ray Terry | Report This Song?
Song Tools

Comment

Songbook

Kudos

Show Chords

Print

Rodney Crowell - I Walk The Line (revisted)  (Solo)

By axehappy - axehappy at countrytabs.com


Tune low E string to D.


***************************************************************************************

h   =   hammer-on                             \   =   slide down

br  =   bend & release                        p   =   pulloff

/   =   slide up                              b   =   bend

***************************************************************************************



E----------------------------------------------------------------------------------
B-------------------1---1----------------------------------------------------------
G-----------0-0---0-0h2-0-------------0-----0-----0------------------------------0-
D----------0--0h2-2------------0-0h2-2-0h2-2-0h2-2------------------------------0--
A-------0h2---------------7\5-3--------------------7\5-3-5-5-5h7-5-----------0h2---
D--0h2-5----------------------------------------------------------7br-5-0h2-5------


E----------------------------------------------------------------|
B------------------1---------------------------------------------|
G--2br-0-----------0-------------0---0---------------------------|
D-------3-2-0---2-2-3-2-0h2p0-0h2-0h2-0h2------------------------|
A------------3-2-------------3------------2/3-4-5\-5h7-----------|
D-----------------------------------------------------7b-7br-5---|


 Comments (click here to add a non-facebook comment)
Rate it!
I can't even play it.
If you can play this Dave. Move to Texas.
Your wasting your time in Britan.
-WayneXG95 | 9/26/2003
Home | FAQs | Privacy | Terms | Advertise | Contact
Top 100 Tab Sites