Give Kudos?
Are you sure you want to give kudos to calve66?

Add To Songbook?
Are you sure you want to add this song to your songbook?


2,681 bands | 34,877 songs
Search: Register FREE! | Login
Browse Songs:
Browse Bands:
Tool Panel
Discuss This Song

1 2 3 4 5





Rodney Crowell - Heartbroke (Solo)
Album: But What Will the Neighbors Think (2005)
Submitter: calve66 (13) on 6/14/06
Month Views: 10 | Total Views: 3,418
Sound Byte: Listen
Moderator: Ray Terry | Report This Song?
Song Tools

Comment

Songbook

Kudos

Show Chords

Print

Rodney Crowell: Heartbroke

In my opinion, this is one of Albert Lee's best recorded solos.

The hardest lick is on line 3 and requires pick and fingers.

I will post a soundbyte as soon as I figure out how. Enjoy !





E----------------------------------------------------------
B----------------------------------------------7-8-9-10----
G---------------------------------------7---9b-------------
D-0---0----0----0-----0------------------9-----------------
A--4h5--4h5-4h5---4h5---5---7-9-10-7h9---------------------
E----------------------------------------------------------


E-------------------5----------8---------------------------
B---------------------5-5-8/10---10-9-8-0------------------
G-9b-7-------4-5/6------------------------10-10p9p7----7\5-
D------10-7-----------------------------------------10-----
A----------------------------------------------------------
E----------------------------------------------------------


E----------------------------------------------------------
B------------------6p0---5p0---8p0---6-----13-15--13b-15-15
G---------------------7-----7-----7---7/14-------14--------
D--7-6-5\2-0---0-0-----------------------------------------
A------------2---------------------------------------------
E----------------------------------------------------------


E-15p14------17/19-17--15-14-------------------------------
B-------15-------------------15----------------------------
G---------14--------------------14-13-12----9b-7-----7-----
D----------------------------------------14------9-7---10--
A----------------------------------------------------------
E----------------------------------------------------------


E-------------------10-11-12-10----------------------------
B------------10-12b-------------13-12-10h12p10-9-----------
G----------9-------------------------------------12-10-11--
D-9-7-9/11-------------------------------------------------
A----------------------------------------------------------
E----------------------------------------------------------


E----------------------------------------------------------
B----------------------------------------------------------
G----------------------------------------------------------
D-12-10----------------------------------------------------
A-------12-11-10-7br-5-----5-------------------------------
E----------------------7p5---------------------------------

 Comments (click here to add a non-facebook comment)
Home | FAQs | Privacy | Terms | Advertise | Contact
Top 100 Tab Sites