Give Kudos?
Are you sure you want to give kudos to BhtrTed1?

Add To Songbook?
Are you sure you want to add this song to your songbook?


2,634 bands | 34,497 songs
Search: Register FREE! | Login
Browse Songs:
Browse Bands:
Tool Panel
Discuss This Song

1 2 3 4 5





Reba McEntire - Fear Of Being Alone /tab (Chord)
Album: What If It's You (1996)
Submitter: BhtrTed1 (0) on 1/14/04 2 comments
Month Views: 17 | Total Views: 3,587
Moderator: Ray Terry | Report This Song?
Song Tools

Comment

Songbook

Kudos

Show Chords

Print

E------------------|---------|-------------------|---------|
B--2---------------|---------|-2-2---------------|---------|
G--0---5-4-5-4-2-0-|-2-0-2-4-|-0-0---5-4-5-4-2-0-|-2-4-2-0-|
D------------------|---------|-------------------|---------|
A------------------|---------|-------------------|---------|
E------------------|---------|-------------------|---------|

D            G         A              D
We ordered up one more bottle of wine
D                G           A                 D
You told me your story and I thought about mine
D                 G            A                D
You said when you lost her you lost everything
D              G          A         D........
It all started having a familiar ring

                                    ( D  G  A  D)x2
E------------------|---------|-------------------|---------|
B--2---------------|---------|-2-2---------------|---------|
G--0---5-4-5-4-2-0-|-2-0-2-4-|-0-0---5-4-5-4-2-0-|-2-4-2-0-|
D------------------|---------|-------------------|---------|
A------------------|---------|-------------------|---------|
E------------------|---------|-------------------|---------|


D                 G        A            D
So I asked you to take me some place quiet
                   G             A                 D
We wound up at the river for the rest of the night
D         G          A          D
Somewhere around the break of day
D               G             A         D
I could hear it coming from a mile away

-Chorus---------

D                 G
So don't say that word
        D           G     D   A
Not the one we both heard too much
D                 G          Em
You may think you do but you don't
              A                    
It's just the fear of being alone

                      -------------------------------------

E------------------|---------|-------------------|---------|
B--2---------------|---------|-2-2---------------|---------|
G--0---5-4-5-4-2-0-|-2-0-2-4-|-0-0---5-4-5-4-2-0-|-2-4-2-0-|
D------------------|---------|-------------------|---------|
A------------------|---------|-------------------|---------|
E------------------|---------|-------------------|---------|

D        G          A        D
Reckless hearts can clear a path
D            G           A      D
Wider than a hurricane's aftermath
D          G        A         D
We've both traveled down that road
D                   G     A               D
Where in the name of love everything goes

-Repeart Chorus---

D          G         D
Like a child in the night
     D         G
With no one to hold you
             Em                A
And tell you everthing's gonna be all right
D       G    A          D
I must admit it's been fun 
D             G         A        D
But that's no reason to jump the gun
           G    A         D
If this is real time will tell
D end.
So let me bite my tongue and remind myself.

--Repeat Chorus---

E------------------|---------|-------------------|---------|
B--2---------------|---------|-2-2---------------|---------|
G--0---5-4-5-4-2-0-|-2-0-2-4-|-0-0---5-4-5-4-2-0-|-2-4-2-0-|
D------------------|---------|-------------------|---------|
A------------------|---------|-------------------|---------|
E------------------|---------|-------------------|---------|x2


 
 Comments (click here to add a non-facebook comment)
great tab, but you need to move
your notes down a string...

-WildCard76 | 1/14/2004
Hmm...My first country tab.And I had to learn it by ear...It sounded right.Post corrections if you want
-BhtrTed1 | 1/15/2004
Home | FAQs | Privacy | Terms | Advertise | Contact
Top 100 Tab Sites