Give Kudos?
Are you sure you want to give kudos to Koichi Kondo?

Add To Songbook?
Are you sure you want to add this song to your songbook?


2,711 bands | 35,094 songs
Search: Register FREE! | Login
Browse Songs:
Browse Bands:
Tool Panel
Discuss This Song

1 2 3 4 5



Randy Rogers Band - Fuzzy (Intro)
Submitter: Koichi Kondo (589) on 4/7/15
Month Views: 46 | Total Views: 3,428
Moderator: Beau2137 | Report This Song?
Song Tools

Comment

Songbook

Kudos

Show Chords

Print

Fuzzy
Written by Written by Shane McAnally, Josh Osborne & Trevor Rosen
Recorded by Randy Rogers Band

(Drop D)

Intro.:
     (F7/B)
E: ||-----------------------------|----------------------------|
B: ||-----------------------------|----------------------------|
G: ||-----------------------------|----------------------------|
D: ||-----1-3-1----------1-3-1----|-----1-3-1------------------|
A: ||-----------3-----------------|-----------3----------------|
D: ||-1-3------------1-3----------|-1-3------------0-----2-----|

    (F7/B)
E: |-----------------------------|-------------------------------||-----
B: |-----------------------------|-------------------------------||-----
G: |-----------------------------|-------------------------------||-----
D: |-----1-3-1----------1-3-1----|-----1-3-1---------------------||-----
A: |-----------3-----------------|-----------3----3-4-3---3------||-----
D: |-1-3------------1-3----------|-1-3------------------6---6----||-3---
 Comments (click here to add a non-facebook comment)
Home | FAQs | Privacy | Terms | Advertise | Contact
Top 100 Tab Sites