Give Kudos?
Are you sure you want to give kudos to Lozano15?

Add To Songbook?
Are you sure you want to add this song to your songbook?


2,711 bands | 35,094 songs
Search: Register FREE! | Login
Browse Songs:
Browse Bands:
Tool Panel
Discuss This Song

1 2 3 4 5



Randy Rogers Band - Better Than I Ought To Be (Intro)
Submitter: Lozano15 (1) on 4/7/09
Month Views: 13 | Total Views: 6,152
Moderator: Beau2137 | Report This Song?
Song Tools

Comment

Songbook

Kudos

Show Chords

Print





	Better Than I Ought To Be
	Randy Rogers Band
	INTrO Riff Tab for lead and rhythm guitar
	The electric plays the top riff and the acustic plays the bottom riff. 
	This is by ear so bear with me if its not exactly right.. it wasnt tabbed and i 
        love this song so i did it myself. 









E|----------------------------------------------------------------------------------
B|----------------------------------------------------------------------------------
G|----------------------------------------------------------------------------------
D|-5--7--9--10--14--12--9--7--5--9---5--7--9--10--14--12--9--7 (X2)----4--5---------
A|----------------------------------------------------------------------------------
E|----------------------------------------------------------------------------------




					-OR-



	E|-------------------------------------------------------------------
	B|-------------------------------------------------------------------
	G|-------------------------------------------------------------------
	D|----------2-0--------------------2-0-------------------------------
	A|----0-2-3-----2-0---2-------0-2-3-----2-0-(X2) --------------------
	E|--3---------------3-------3-------------------2-3------------------

	
 Comments (click here to add a non-facebook comment)
Home | FAQs | Privacy | Terms | Advertise | Contact
Top 100 Tab Sites