Give Kudos?
Are you sure you want to give kudos to Koichi Kondo?

Add To Songbook?
Are you sure you want to add this song to your songbook?


2,664 bands | 34,754 songs
Search: Register FREE! | Login
Browse Songs:
Browse Bands:
Tool Panel
Discuss This Song

1 2 3 4 5





Midland - Burn Out (Lead)
Submitter: Koichi Kondo (855) on 5/19/18 1 comment
Month Views: 145 | Total Views: 382
Moderator: tycobb00 | Report This Song?
Song Tools

Comment

Songbook

Kudos

Show Chords

Print

Burn Out
Written by Jess Carson, Cameron Duddy, Mark Wystrach,Shane McAnally & Josh Osborne
Recorded by Midland
Album: On The Rocks (2017)

   (G)                           (Em)
E: |----------------|------------|----------------|------------|
B: |--------------3-|------------|--------------3-|------------|
G: |----0------0----|------------|----0------0----|------------|
D: |------4---------|------------|------4---------|------------|
A: |----------------|------------|----------------|------------|
E: |----------------|------------|----------------|------------|

   (Am)             (C)   (D7)   (G)
E: |----------------|------------|----------------|------------|
B: |----1-0---------|-1----3-----|--------------3-|------------|
G: |-----------0----|------------|----0------0----|------------|
D: |--------------2-|------------|------4---------|------------|
A: |----------------|------------|----------------|------------|
E: |----------------|------------|----------------|------------|
 Comments (click here to add a non-facebook comment)
Hey firstly than you so much for posting this and secondly thank you for giving an opportunity to post here. I really found your web page very interesting and would love to see more of these. It is quite interesting and also boosts the knowledge. I also want to let you know that for urgent write ups please click on-http://collegewritingservice.blogspot.com/ We provide confidential services and are completely between the two without the interference of the third party. We are here for leading your order to a success. Go ahead and place an order today!
-22vanessa | 5/22/2018
Home | FAQs | Privacy | Terms | Advertise | Contact
Top 100 Tab Sites