Give Kudos?
Are you sure you want to give kudos to mkrousie?

Add To Songbook?
Are you sure you want to add this song to your songbook?


2,668 bands | 34,777 songs
Search: Register FREE! | Login
Browse Songs:
Browse Bands:
Tool Panel
Discuss This Song

1 2 3 4 5





Little Big Town - Pontoon (Solo)
Submitter: mkrousie (3) on 8/3/12
Month Views: 13 | Total Views: 5,996
Moderator: falgorn | Report This Song?
Song Tools

Comment

Songbook

Kudos

Show Chords

Print

Little Big Town:  Pontoon

Solo:
       D                              A
E[-----------------------------------------------------------------------------]
B[----7-10----7-10-7-7-10/15-------15-17-17---16-1412-12b(14)----------------]
G[--7--------9---------9--------------14---------------14----------------------]
D[-----------------------------------------------------------------------------]
A[-----------------------------------------------------------------------------]
E[-----------------------------------------------------------------------------]
     E                                      A
E[---------------------------------------------------------------------------]
B[--------17---------17----------------14---12-------------------------------]
G[--16-18---16--16-18----------------------------------------14--------------]
D[------------------------14-----12/16---14-----12h14---14-------------------]
A[--------------------------------------------------------------14-12--------]
E[---------------------------------------------------------------------------]
 Comments (click here to add a non-facebook comment)
Home | FAQs | Privacy | Terms | Advertise | Contact
Top 100 Tab Sites