Give Kudos?
Are you sure you want to give kudos to Dirt_Devil?

Add To Songbook?
Are you sure you want to add this song to your songbook?


2,635 bands | 34,516 songs
Search: Register FREE! | Login
Browse Songs:
Browse Bands:
Tool Panel
Discuss This Song

1 2 3 4 5





Little Big Town - A Little More You (intro) (Intro)
Album: The Road to Here (2005)
Submitter: Dirt_Devil (1) on 5/11/07
Month Views: 31 | Total Views: 8,903
Moderator: falgorn | Report This Song?
Song Tools

Comment

Songbook

Kudos

Show Chords

Print

Capo 3

E--------------------------------------------------------
B--------------------------------------------------------
G-------------------------2-0--0-0-----------------------
D------------0-2-0-----0--3-3--2-0----0------------------
A-------0h2--------0h2----3-3--3-3--3---2p0---------0h2--
E--3-3-----------------------------------------3-3-------

e--------------------------------------------------------
B--------------------------------------------------------
G---------------2-0--0---5/4p2---------------------------
D--0-2-0-----0--3-3--2-----------------------------------
A--------0h2----3-3--3-----------------------------------
E--------------------------------------------------------
 Comments (click here to add a non-facebook comment)
Home | FAQs | Privacy | Terms | Advertise | Contact
Top 100 Tab Sites