Give Kudos?
Are you sure you want to give kudos to mkrousie?

Add To Songbook?
Are you sure you want to add this song to your songbook?


2,681 bands | 34,877 songs
Search: Register FREE! | Login
Browse Songs:
Browse Bands:
Tool Panel
Discuss This Song

1 2 3 4 5





Kenny Chesney - Reality (Solo)
Album: Hemingway's Whiskey (2010)
Submitter: mkrousie (4) on 8/22/12
Month Views: 10 | Total Views: 2,263
Moderator: Ray Terry | Report This Song?
Song Tools

Comment

Songbook

Kudos

Show Chords

Print

Kenny Chesney:  Reality

Solo:

E[-10/12v12\10h12p10h12p10h12---------------------------------------------------]
B[----------------------------13h15p13-13----------------------------------------]
G[---------------------------------------14p12-14\5h7b-7b-7b(9)7b-7b(9)-7-9-7\5-]
D[-------------------------------------------------------------------------------]
A[-------------------------------------------------------------------------------]
E[-------------------------------------------------------------------------------]

E[-------------------------------------------------------12----------------------]
B[------------------------88h10bp8-8-10-13-15-13h15-----------------------------]
G[-------------5--5-7/9------------9---------------------------------------------]
D[---------5---------------------------------------------------------------------]
A[--3-5/7------------------------------------------------------------------------]
E[-------------------------------------------------------------------------------]

E[--10h1210h1210h12p10h12/15--12-15-12-15/20-20b-20b(22)V----------------------]
B[-------------------------------------------------------------------------------]
G[-------------------------------------------------------------------------------]
D[-------------------------------------------------------------------------------]
A[-------------------------------------------------------------------------------]
E[-------------------------------------------------------------------------------]
 Comments (click here to add a non-facebook comment)
Home | FAQs | Privacy | Terms | Advertise | Contact
Top 100 Tab Sites