Give Kudos?
Are you sure you want to give kudos to mkrousie?

Add To Songbook?
Are you sure you want to add this song to your songbook?


2,675 bands | 34,837 songs
Search: Register FREE! | Login
Browse Songs:
Browse Bands:
Tool Panel
Discuss This Song

1 2 3 4 5





Kenny Chesney - Reality (Intro)
Album: Hemingway's Whiskey (2010)
Submitter: mkrousie (3) on 7/16/12
Month Views: 22 | Total Views: 3,440
Moderator: Ray Terry | Report This Song?
Song Tools

Comment

Songbook

Kudos

Show Chords

Print

Kenny Chesney:  Reality
Intro:
E[-----------------------------------------------------------------------------]
B[-----------------------------------------------------------------------------]
G[-5/9---99h12p95/9--9-9h12p95/9--9-9h12p9--9-7-9b-7-5-7--------------------]
D[----------------------------------------------------------5------------------]
A[-----------------------------------------------------------------------------]
E[-----------------------------------------------------------------------------]

E[-----------------------------------------------------------------------------]
B[-----------------------------------------------------------------------------]
G[-5/9---99h12p95/9--9-9h12p95/9--9-9h12p9--9-7-9b-7-5-7p5------------------]
D[-------------------------------------------------------------7--5------------]
A[-----------------------------------------------------------------------------]
E[-----------------------------------------------------------------------------]
 Comments (click here to add a non-facebook comment)
Home | FAQs | Privacy | Terms | Advertise | Contact
Top 100 Tab Sites