Give Kudos?
Are you sure you want to give kudos to cmtboy?

Add To Songbook?
Are you sure you want to add this song to your songbook?


2,681 bands | 34,877 songs
Search: Register FREE! | Login
Browse Songs:
Browse Bands:
Tool Panel
Discuss This Song

1 2 3 4 5





Kenny Chesney - On The Coast Of Somewhere Beautiful (Solo)
Album: No Shoes, No Shirt, No Problem (2002)
Submitter: cmtboy (2) on 7/20/03 2 comments
Month Views: 11 | Total Views: 5,541
Moderator: Ray Terry | Report This Song?
Song Tools

Comment

Songbook

Kudos

Show Chords

Print

 On The Coast Of Somewhere Beautiful by Kenny Chesney (Solo) 

        h=hammer on               p=pull off
        /=slide up                ~=vibrato
        *=pinch harmonic          br=bend and release
     


 E------------------------------------|
 B-11h12-12/14-12p11-9----9-9/11-9~---|
 G---------------------11-------------|
 D------------------------------------|
 A------------------------------------|
 E------------------------------------|


 E-------16-14-13-11-10--------------9---------------------|
 B----14-----------------11br-9----9---7~------------------|
 G-13---------------------------11--------6/8*-8-6---------|
 D-------------------------------------------------8---4---|
 A---------------------------------------------------6-----|
 E---------------------------------------------------------|

 Comments (click here to add a non-facebook comment)
first half is good, second bit needs a few corrections.
-saleen9899 | 8/25/2003
E-------16-14-13-11-9/----------------------------|
B----14----------------11pbr-9----9-12qb-9~-------|
G-13--------------------------11------------------|
D-------------------------------------------------|
A-------------------------------------------------|
E-------------------------------------------------|




-saleen9899 | 8/25/2003
Home | FAQs | Privacy | Terms | Advertise | Contact
Top 100 Tab Sites