Give Kudos?
Are you sure you want to give kudos to MattCruiz?

Add To Songbook?
Are you sure you want to add this song to your songbook?


2,682 bands | 34,891 songs
Search: Register FREE! | Login
Browse Songs:
Browse Bands:
Tool Panel
Discuss This Song

1 2 3 4 5





Kenny Chesney - Better As A Memory (Solo)
Album: Just Who I Am, Poets & Pirates (2007)
Submitter: MattCruiz (1) on 7/7/08
Month Views: 20 | Total Views: 8,377
Moderator: Ray Terry | Report This Song?
Song Tools

Comment

Songbook

Kudos

Show Chords

Print

E----------------------------------
B-8/10-10-10b-8--------------------
G---------------9-----7-9/11-9-11--
D-----------------7/9--------------
A----------------------------------
E----------------------------------

E------------------10-12b-10-10h12-
B-10---------10-12-----------------
G----11b-9-7-----------------------
D----------------------------------
A----------------------------------
E----------------------------------

E-12-14v-14-12-10-9-10-------------
B----------------------12-10b-8----
G-------------------------------9--
D----------------------------------
A----------------------------------
E----------------------------------

E----------------------------------------
B-8h10-----------------------------------
G------9b-7---7h9-9-9-9-7-7-----7-9b-7-7-
D-----------8---------------7/9----------
A----------------------------------------
E----------------------------------------
 Comments (click here to add a non-facebook comment)
Home | FAQs | Privacy | Terms | Advertise | Contact
Top 100 Tab Sites