Give Kudos?
Are you sure you want to give kudos to MattCruiz?

Add To Songbook?
Are you sure you want to add this song to your songbook?


2,681 bands | 34,877 songs
Search: Register FREE! | Login
Browse Songs:
Browse Bands:
Tool Panel
Discuss This Song

1 2 3 4 5





Kenny Chesney - Better As A Memory 2 (Intro)
Album: Just Who I Am, Poets & Pirates (2007)
Submitter: MattCruiz (2) on 7/7/08
Month Views: 6 | Total Views: 4,228
Moderator: Ray Terry | Report This Song?
Song Tools

Comment

Songbook

Kudos

Show Chords

Print

E-------0---0-----------0---0-------
B-----3---3---3-------3---3---3-----
G---2-----------2---2-----------2---
D-0---------------------------------
A-----------------4-----------------
E-----------------------------------

E-------0---0------3----------------
B-----3---3---3----3----------------
G---2-----------2--0----------------
D------------------0----------------
A-2----------------2----------------
E------------------3----------------
 Comments (click here to add a non-facebook comment)
Home | FAQs | Privacy | Terms | Advertise | Contact
Top 100 Tab Sites