Give Kudos?
Are you sure you want to give kudos to calve66?

Add To Songbook?
Are you sure you want to add this song to your songbook?


2,682 bands | 34,891 songs
Search: Register FREE! | Login
Browse Songs:
Browse Bands:
Tool Panel
Discuss This Song

1 2 3 4 5





Kenny Chesney - Beer In Mexico (Lead)
Album: The Road and the Radio (2005)
Submitter: calve66 (9) on 8/7/06
Month Views: 13 | Total Views: 15,195
Moderator: Ray Terry | Report This Song?
Song Tools

Comment

Songbook

Kudos

Show Chords

Print

Kenny Chesney:Beer In Mexico(Lead)

I have transcribed most of the licks, the solo and
most of the outro licks. It gets real repetitive at
the end so I stopped. This should get you through.
Enjoy~Cal



waste another day

E----------10----------------------------------------------
B-10bh(12)----(12)r10-8------------------------------------
G-----------------------9b(11)r9-7-------------------------
D----------------------------------------------------------
A----------------------------------------------------------
E----------------------------------------------------------

waste another day

E----------------------------------------------------------
B-----------7---7------------------------------------------
G-----7-7---7h9-7------------------------------------------
D-7h9-----9------------------------------------------------
A----------------------------------------------------------
E----------------------------------------------------------

Guitar Solo

E----------------------------------------------------------
B----------------------8-9-10---------------------12-------
G-9b(11)-9b(11)-9b(11)--------(11)r9-7/14-14b(16)----14-12-
D----------------------------------------------------------
A----------------------------------------------------------
E----------------------------------------------------------


E-----------------10------------------17b(19)-15-14--------
B--------------------10-----------------------------15b(17)
G-(10)r9-7-9b(11)-------(11)r9-7---7-----------------------
D--------------------------------9-------------------------
A----------------------------------------------------------
E----------------------------------------------------------

E--------------------------------17------------------------
B-15b(17)-15-17----15----17b(19)----17b(19)r17-15----17b(19)
G---------------16----16--------------------------16-------
D----------------------------------------------------------
A----------------------------------------------------------
E----------------------------------------------------------


E-17-------------------------------------------------------
B----17b(19)r17-15-----------------------------------------
G----------------------------------------------------------
D----------------------------------------------------------
A----------------------------------------------------------
E----------------------------------------------------------

The ending licks are traded back and forth on 2 guitars
One lick begins as the other one ends. For simplicity, I
Will list them separately.


Lick #1

E------------10---------10---------------------------------
B---------10----13b(15)----13-10----10---------------------
G-12b(14)------------------------12----10b(11)--------7-9b(11)
D----------------------------------------------12-7h9------
A----------------------------------------------------------
E----------------------------------------------------------


E-----------------------15-17------------------------------
B-10---------15-17b(19)-------(19)r17-15----15-------------
G----14b(16)-----------------------------16----17b(19)-----
D----------------------------------------------------------
A----------------------------------------------------------
E----------------------------------------------------------

Lick #2
                                                     Rake pick
E---------10--------------------------------------------------
B-13b(15)----13-10---------------------------15------15-------
G------------------12-10----12-10----10b(11)-14b(16)---14-----
D------------------------12-------12----------------------14p12
A-------------------------------------------------------------
E-------------------------------------------------------------


E---------------------------------------------10-----------
B---------------------------------------10-12--------------
G-10-----------------------------7-9/11--------------------
D--------------------------7-7h9---------------------------
A----11\10-8---------5-7/9---------------------------------
E------------10\-5h7---------------------------------------

Lick #3

E----------------------------------------------------------
B-7--------10----10------10-----10-----10------10------10--
G---9b(11)-9b(11)-9b(11)--9b(11)-9b(11)-9b(11)--9b(11)--9b(11)
D----------------------------------------------------------
A----------------------------------------------------------
E----------------------------------------------------------


E----------------------------------------------------------
B-10-------------------------------------------------------
G--9b(11)-7-9-5b(7)----------------------------------------
D-------------------6\5p3-5-3-5b(7)-3b(4)------------------
A-----------------------------------------5b(7)r5\---------
E----------------------------------------------------------

Lick #4

E---------17------------------------------10---------------
B-17b(19)------------15---------13-------------------------
G------------14b(16)----12b(14)----9b(11)----9b(11)r9-7---7
D-------------------------------------------------------9--
A----------------------------------------------------------
E----------------------------------------------------------


E----------------------------------------------------------
B----------------------------------------------------------
G-9b(11)-9-7---9b(11)-9-7---9b(11)-9-7---9b(11)-9-7---7----
D------------9------------9------------9------------9------
A----------------------------------------------------------
E----------------------------------------------------------

Lick #5

E-17b(19)-17-19-17-19-17-17b(19)r17b(19)-17-16-15-13-15b(17)
B----------------------------------------------------------
G----------------------------------------------------------
D----------------------------------------------------------
A----------------------------------------------------------
E----------------------------------------------------------


E-15b(17)-15b(17)r15-13-15-13------------------------------
B-----------------------------15----------15-17----15------
G--------------------------------16-14h16-------16---------
D----------------------------------------------------------
A----------------------------------------------------------
E----------------------------------------------------------


E----------------------------------------------------------
B-------15-------15-------15-------15-------15-------15----
G-16h17----16h17----16h17----16h17----16h17----16h17-------
D----------------------------------------------------------
A----------------------------------------------------------
E----------------------------------------------------------


E-----------------------------------17-17------------------
B-17b(19)-17-15h17p15----15-17b(19)----17b(19)-repeat bend-
G---------------------16---------------------------11 times
D----------------------------------------------------------
A----------------------------------------------------------
E----------------------------------------------------------

That's Enough You are on your own to the end

 Comments (click here to add a non-facebook comment)
Home | FAQs | Privacy | Terms | Advertise | Contact
Top 100 Tab Sites