Give Kudos?
Are you sure you want to give kudos to axehappy?

Add To Songbook?
Are you sure you want to add this song to your songbook?


2,681 bands | 34,877 songs
Search: Register FREE! | Login
Browse Songs:
Browse Bands:
Tool Panel
Discuss This Song

1 2 3 4 5





Kenny Chesney - Baptism (Intro)
Album: Greatest Hits (2000)
Submitter: axehappy (88) on 2/10/02 2 comments
Month Views: 13 | Total Views: 13,438
Moderator: Ray Terry | Report This Song?
Song Tools

Comment

Songbook

Kudos

Show Chords

Print

Kenny Chesney - Baptism (picked intro)

By axehappy - axehappy at countrytabs.com



E     =   022100                          Dbm7     =   x46454

A     =   x02220                          Amaj9    =   x22224


***********************************************************************


       E       Dbm7 A       Amaj9      E       Dbm7     A


E-----------0-7\4-------0-2-2h4--2p0--------0-7/4------0----0-2--
B--------0h2------5--0h2----2---2---2p0--0h2--------5-2--0h2-----
G---------------4---2---------------------------4--4----2--------
D-----2----------------------------------------------------------
A--2h4----------4---0-------2--2----------------4-4-----0--------
E------0-------------------------------0-------------------------


   E

E--2h4-5p4-2-----|
B--5--------5----|
G------------4---|
D--2--2----------|
A----------------|
E------------0---|
 Comments (click here to add a non-facebook comment)
Excellent tab .... sounds great
-KennyChesney | 9/26/2004
this tab is perfect, great work
-tdbaseus | 1/8/2006
Home | FAQs | Privacy | Terms | Advertise | Contact
Top 100 Tab Sites