Give Kudos?
Are you sure you want to give kudos to logansams?

Add To Songbook?
Are you sure you want to add this song to your songbook?


2,668 bands | 34,775 songs
Search: Register FREE! | Login
Browse Songs:
Browse Bands:
Tool Panel
Discuss This Song

1 2 3 4 5





Kenny Chesney - Anything But Mine (solo2) (Solo)
Album: When The Sun Goes DOwn (2003)
Submitter: logansams (3) on 1/14/05 2 comments
Month Views: 15 | Total Views: 7,795
Sound Byte: Listen
Moderator: Ray Terry | Report This Song?
Song Tools

Comment

Songbook

Kudos

Show Chords

Print

Iím not a big Kenny fan, but someone requested this and it is a good
solo for the intermediate player to work on.  I have included a sound
byte at fast and slow speeds of the solo only.  Hope I havenít screwed up any of
the numbers!  Let me know if there are corrections (it is very late).
Good luck!


logansams at hotmail.com

Solo 2 (4:04)

-------------------------------------------------------------------
-12--12----------------------------------12-12----12h14-12---------
-11b----b11r-9--9-11-------------9-11/13-------13----------13\11p9-
---------------------9/11~--9/11-----------------------------------
-------------------------------------------------------------------
-------------------------------------------------------------------



-----------------12----------------12----------------------------
--------------------12----------------12-------------------------
-11b-9h11~---11b-------b11rp9--11b-------b11r-b11rp9----9h11-----
-----------------------------------------------------11------9/11
-----------------------------------------------------------------
-----------------------------------------------------------------



-----------------12--------------12--------------
-----------------12--------------12--------------
-----------9-11b----b11rp9-9h11b----b11r-9-------
-11\--9/11---------------------------------------
-------------------------------------------------
-------------------------------------------------






-----------------------------19-------------
-------------------17----19b----b19r-17-----
----------------16----16--------------------
-------14-16/18-----------------------------
-14h16--------------------------------------
--------------------------------------------

                     
                                                 (music fades)
-----12------12------12------12----------------------------------
-12b----b12r----b12r----b12r----b12r-9-----12--------------------
---------------------------------------11b----b11r---------------
-----------------------------------------------------------------
-----------------------------------------------------------------
-----------------------------------------------------------------



 Comments (click here to add a non-facebook comment)
Awesome job on both solo's! Thanks!!
-KD4PWH | 3/7/2005
Hey, do you think that you could figure out how the very last part is played. I have tried to find the tabs or chords on other websites but I have had no luck so far. Great Job on this solo
-stsweeper | 5/25/2005
Home | FAQs | Privacy | Terms | Advertise | Contact
Top 100 Tab Sites