Give Kudos?
Are you sure you want to give kudos to matellmon?

Add To Songbook?
Are you sure you want to add this song to your songbook?


2,680 bands | 34,867 songs
Search: Register FREE! | Login
Browse Songs:
Browse Bands:
Tool Panel
Discuss This Song

1 2 3 4 5





Kenny Chesney - A Lot Of Things Different (Intro)
Album: No Shoes, No Shirt, No Problem (2002)
Submitter: matellmon (83) on 6/23/03
Month Views: 86 | Total Views: 13,153
Moderator: Ray Terry | Report This Song?
Song Tools

Comment

Songbook

Kudos

Show Chords

Print

A Lot Of Things Different
By Kenny Chesney

Tabbed by Matellmon

  D                         Bm7

E---------------2--------0---------------------
B-------------3----3----------3---3------------
G-----------2--------2----------2-----2--------
D-----0--0-----------------------------------0-
A-0h2-----------------------2------------0h2---
E----------------------------------------------

  D                      Bm7    
 
E------2-2--------0----------------------------
B------3-3------3-----------32-3--------------
G----2-------2---------------------------------
D--0------------------------------------0------
A----------------------2------------0h2--------
E----------------------------------------------
 Comments (click here to add a non-facebook comment)
Home | FAQs | Privacy | Terms | Advertise | Contact
Top 100 Tab Sites