Give Kudos?
Are you sure you want to give kudos to axehappy?

Add To Songbook?
Are you sure you want to add this song to your songbook?


2,632 bands | 34,462 songs
Search: Register FREE! | Login
Browse Songs:
Browse Bands:
Tool Panel
Discuss This Song

1 2 3 4 5





Keith Urban - Your Everything (Solo)
Album: Keith Urban (1999)
Submitter: axehappy (130) on 7/6/03 1 comment
Month Views: 27 | Total Views: 6,603
Moderator: urbanriffs | Report This Song?
Song Tools

Comment

Songbook

Kudos

Show Chords

Print

Keith Urban  -  Your Everything  (solo)

By axehappy  -  axehappy at countrytabs.com


This is about as close as I could get this one..


************************************************************************************

/   =   slide up                                     h   =   hammer-on

\   =   slide down                                   pbr =   pre-bend & release

p   =   pulloff

************************************************************************************


  A                      A/Db                D
 
E--0---0-0-0-0-0-0--0----0--0-----0--0--0----0---------------------0--
B--3/5-5-5-5-5-5-5-10/12-12-12h14-14-14-14\7-7------------------------
G----------------------------------------------11\9-9/11-11--11\9-7---
D---------------------------------------------------------------------
A----------------------------------------------9-\7-7/9--9---9-\7-5---
E---------------------------------------------------------------------

   A                A/Db          G                  D                 A

E--0---0-0-0--0-----0--0-----0---------------------0-----0--0--------------|
B--3/5-5-5-5-10/12-12-12/14-14\12-12--12-12pbr-p10-8/10-10-10--------------|
G---------------------------------12--------------------------11\9-7-7/9---|
D--------------------------------------------------------------------------|
A-------------------------------------------------------------9-\7-5-5/7---|
E--------------------------------------------------------------------------|


 Comments (click here to add a non-facebook comment)
YOU SUCK!!!
-peanut014 | 1/18/2006
Home | FAQs | Privacy | Terms | Advertise | Contact
Top 100 Tab Sites