Give Kudos?
Are you sure you want to give kudos to rune?

Add To Songbook?
Are you sure you want to add this song to your songbook?


2,691 bands | 34,918 songs
Search: Register FREE! | Login
Browse Songs:
Browse Bands:
Tool Panel
Discuss This Song

1 2 3 4 5





Keith Urban - Don't Shut Me Out (Intro)
Album: Keith Urban (1999)
Submitter: rune (7) on 5/9/02 1 comment
Month Views: 5 | Total Views: 6,428
Moderator: urbanriffs | Report This Song?
Song Tools

Comment

Songbook

Kudos

Show Chords

Print

Keith Urban - Don't Shut Me Out
Album - Keith Urban (1999)

 

Intro (also picked during most of the verse)

   D    D/F# D/G               D    D/F# D/G 
e-----------------------------------------------------------
B----3----3----3-----------------3----3----3----------------
G---2-2--2------2---------------2-2--2------2---------------
D--0---------------------0-2---0----------------4p2p0-------
A------------------0h2h4------------------------------2-0---
E-------2----3----------------------2----3------------------

   D    D/F# D/G
e-----------------------------------------
B----3----3----3-----------------3----3---
G---2-2--2------2---------------2-2--2----
D--0---------------------0-2---0----------
A------------------0h2h4------------------
E-------2----3----------------------2---3-


 Comments (click here to add a non-facebook comment)
I guess it doesn't matter but to get that low note just tune down the low E to a D
-Super247365 | 7/7/2002
Home | FAQs | Privacy | Terms | Advertise | Contact
Top 100 Tab Sites