Give Kudos?
Are you sure you want to give kudos to axehappy?

Add To Songbook?
Are you sure you want to add this song to your songbook?


2,634 bands | 34,497 songs
Search: Register FREE! | Login
Browse Songs:
Browse Bands:
Tool Panel
Discuss This Song

1 2 3 4 5





Hank Williams, Jr. - All My Rowdy Friends Are Comin' Over Tonight (Intro)
Album: Major Moves (1984)
Submitter: axehappy (107) on 5/4/02
Month Views: 47 | Total Views: 10,509
Moderator: bddotnet | Report This Song?
Song Tools

Comment

Songbook

Kudos

Show Chords

Print

Hank Williams Jr - All My Rowdy Friends Are Comin' Over (intro)

By axehappy - axehappy at countrytabs.com

***********************************************************************

x   =   dead note                               b   =   bend

pbr =   pre-bend & release                      p   =   pulloff

/   =   slide up                                ~   =   vibrato

\   =   slide down                              bh  =   bend & hold

r   =   release bend
                             
***********************************************************************


First riff:

   E7

   rake
E----12---12-----------------------------------------|
B---x--15b--15-14-12-14pbr-p12-14--------------------|
G--x-----------------------------11/12-13------------|
D----------------------------------------12/14~~~\---|
A----------------------------------------------------|
E----------------------------------------------------|

Second riff:

  D7

E--7pbr-5-7-5-5-------------5-8/10---|
B------------7-7\5/7-----5/7---------|
G-------------------5b---------------|
D---------------------7-4------------|
A------------------------------------|
E------------------------------------|


Piano starts and this chord is played:

   A9

E--12--12\---|
B--12--12\---|
G--12--12\---|
D--11--11\---|
A--12--12\---|
E------------|


The rhythm guitar starts playing this blues shuffle which continues 
through the rest of the intro:


E:-----------------------:|
B:-----------------------:|
G:--2-2-------2-2--------:|
D:--2-2-4-2-4-2-2-4-2-4--:|
A:--0-0-0-0-0-0-0-0-0-0--:|
E:-----------------------:|


This riff is played:


E-----17-17----17-----------|
B--15b-----15bh--15r-13b\---|
G---------------------------|
D---------------------------|
A---------------------------|
E---------------------------|


Then this riff just before the singing starts:


E-----------|
B-----------|
G--5\4--2---|
D--5\4--2---|
A--3\2--0---|
E-----------|


 Comments (click here to add a non-facebook comment)
Home | FAQs | Privacy | Terms | Advertise | Contact
Top 100 Tab Sites