Give Kudos?
Are you sure you want to give kudos to Cstrong528?

Add To Songbook?
Are you sure you want to add this song to your songbook?


2,619 bands | 34,323 songs
Search: Register FREE! | Login
Browse Songs:
Browse Bands:
Tool Panel
Discuss This Song

1 2 3 4 5





Eric Church - Drink In My Hand (Solo)
Album: Chief (2011)
Submitter: Cstrong528 (10) on 5/18/17
Month Views: 364 | Total Views: 364
Moderator: Ray Terry | Report This Song?
Song Tools

Comment

Songbook

Kudos

Show Chords

Print

e|-----12-------12-------12-13p12-13p12-----------------------------------
B|--------13-------13------------------13--------13------------13---------
G|-/12-------12-------12-----------------12-12b14----12rb-12b14----12-10--
D|------------------------------------------------------------------------
A|------------------------------------------------------------------------
E|------------------------------------------------------------------------

e|-----12-------12-------12-13p12-------13p12-----------------------------
B|--------13-------13-------------13----------13----------13-15-13-15b17--
G|-/12-------12-------12-------------12----------12-12/14-----------------
D|------------------------------------------------------------------------
A|------------------------------------------------------------------------
E-------------------------------------------------------------------------

e|-17---------------------------------------------------------------------
B|----13-15-13-15b17-13---------------------------------------------------
G|------------------------------------------------------------------------
D|------------------------------------------------------------------------
A|------------------------------------------------------------------------
E|------------------------------------------------------------------------

 Comments (click here to add a non-facebook comment)
Home | FAQs | Privacy | Terms | Advertise | Contact
Top 100 Tab Sites