Give Kudos?
Are you sure you want to give kudos to mkrousie?

Add To Songbook?
Are you sure you want to add this song to your songbook?


2,668 bands | 34,777 songs
Search: Register FREE! | Login
Browse Songs:
Browse Bands:
Tool Panel
Discuss This Song

1 2 3 4 5





Dustin Lynch - Cowboys And Angles Intro And Fills (Lead)
Submitter: mkrousie (3) on 11/6/12
Month Views: 36 | Total Views: 3,737
Moderator: brickboy09 | Report This Song?
Song Tools

Comment

Songbook

Kudos

Show Chords

Print

Dustin Lynch:  Cowboys and Angels

Intro:
E[------------------------------------------------------------]
B[------------------------------------------------------------]
G[------------------------------------------------------------]
D[----------------------------------3-------------------------]
A[-----1-3-3/5-0h1-----------1-3-3/53h5----------------------]
E[-1-3-----------------1/3------------------------------------]

Not sure why her path crossed mine
E[------------------------------------------------------------]
B[-----6------------------------------------------------------]
G[--/5---8----------------------------------------------------]
D[------------------------------------------------------------]
A[------------------------------------------------------------]
E[------------------------------------------------------------]
Accident or grand design
E[------------------------------------------------------------]
B[--/8-6------------------------------------------------------]
G[-------7p5v-------------------------------------------------]
D[------------------------------------------------------------]
A[------------------------------------------------------------]
E[------------------------------------------------------------]

Maybe God just kind of likes
E[------------------------------------------------------------]
B[------------------------------------------------------------]
G[-5/7-7\5-5/7-7\5-5/7----------------------------------------]
D[------------------------------------------------------------]
A[------------------------------------------------------------]
E[------------------------------------------------------------]

Still Working on solo
 Comments (click here to add a non-facebook comment)
Home | FAQs | Privacy | Terms | Advertise | Contact
Top 100 Tab Sites