Give Kudos?
Are you sure you want to give kudos to torresd47?

Add To Songbook?
Are you sure you want to add this song to your songbook?


2,681 bands | 34,877 songs
Search: Register FREE! | Login
Browse Songs:
Browse Bands:
Tool Panel
Discuss This Song

1 2 3 4 5





Dustin Lynch - Cowboys & Angels (complete Tab) (Tab)
Album: Dustin Lynch (2012)
Submitter: torresd47 (1) on 11/3/12
Month Views: 93 | Total Views: 14,267
Moderator: brickboy09 | Report This Song?
Song Tools

Comment

Songbook

Kudos

Show Chords

Print

COuntryguitaronline.com has both video lessons available for Cowboys & Angels

Tuning should be as follows:
  \/
  \/   Chords: Am   G/B   C   Gmaj   F/C  G
(E)6=D#        0     0    0    2      0   2 
(A)5=G         0     2    3    0      3   2
(D)4=C         2     0    2    0      3   0
(G)3=F         0     0    0    0      2   0
(B)2=A         1     3    1    1      1   0 
(E)1=D         0     0    0    0      0   3






INTRO


 Am          G/B    C                Am           Gmaj      F/C

--------------------------------------------------2---------0----0----
-0---0-------2------3-3------3-3-----0---0----------------------------
---------2-----0----------2-------2----------2------0---------3-----3-
--------0-0------0-------0-0-----0----------0------------------2---0--
-0h1--1------3----------1-------1----0h1---1---0------0h1-------1-----
--------------------0--------0----------------------------------------

VERSE 1

(Am)There's a want, (G/B)and there's (C)a need,
 (F/C)There's a histor(Am)y (G)between

 Am          G/B    C                F/C          Am**  G

-------------------------------------0---0--------------2-2-------2-2------
-0---0-------2------3-3------3-3---------------3---------------------------
---------2-----0----------2-------2-----------3-3-0h2-------------------0--
--------0-0------0-------0-0-----0---0h2---2R0-------0-----0-0h2-0-----2---
-0h1--1------3----------1-------1----1-----1----------1----0----------0----
--------------------0--------0---------------------------------------------


Am** 
0
0
2
0
1
0

(Am)Girls Like (G/B)her, and (C)Guys like (F/C)me,
 Cowboys (G)and 

 Am    G/B    C            F/C                    G   C

---------------------------0-0-----0-0-----0-0----2------
-0-----2------3-3----------3-------3-------3------2------
---2-----0-----------------3----3--3----3--3----3-0------
----0------0---------------2---2-2-2---2-2-2---2--0------
-1-----3----------1--------1--1----1--1----1--1---0------
--------------0------------0-------0-------0------3------



Instrumental Break (Same as intro)


Angels
Am          G/B    C                Am           Gmaj      F/C

------------------------------------------------2---------0----0----0-----0--0---
0---0-------2------3-3------3-3-----0---0----------------------------------------
--------2-----0----------2-------2----------2------0---------3-----3---3-3--3--3-
-------0-0------0-------0-0-----0----------0------------------2---0-----2----0--0
0h1--1------3----------1-------1----0h1---1---0------0h1-------1-----------------
-------------------0--------0----------------------------------------------------



VERSE 2

(Am)I've got boots, (G/B)and she's (C)got wings, 
(F/C)I'm hell on wheels and she'(Am)s (G)Heavenly

 Am          G/B    C                F/C          Am**  G

-------------------------------------0---0--------------2-2-------2-2------
-0---0-------2------3-3------3-3---------------3---------------------------
---------2-----0----------2-------2-----------3-3-0h2-------------------0--
--------0-0------0-------0-0-----0---0h2---2R0-------0-----0-0h2-0-----2---
-0h1--1------3----------1-------1----1-----1----------1----0----------0----
--------------------0--------0---------------------------------------------


Am** 
0
0
2
0
1
0

(Am)I'd die for (G/B)her, and (C)she lives for (F/C)me,
Cowboys (G)and Angels

Am    G/B    C            F/C                    G 

---------------------------0-0-----0-0-----0-0----2------
-0-----2------3-3----------3-------3-------3------2------
---2-----0-----------------3----3--3----3--3----3-0------
----0------0---------------2---2-2-2---2-2-2---2--0------
-1-----3----------1--------1--1----1--1----1--1---0------
--------------0------------0-------0-------0------3------

Chorus


  F/C  G       C    Am
We Ride side by side

            F/C G           Am G(Walking Down)
A cloud of dust, a ray of light

    F/C
My Touch is her temptation

    G
Her kiss is my salvation
    
       C           G/B        Am  G  F/C
She's sweet, I'm wild, we're dangerous

            G    Am(Leads back to picking)
Cowboys and Angels


Am          G/B    C                Am           Gmaj      F/C

------------------------------------------------2---------0----0----0-----0--0---
0---0-------2------3-3------3-3-----0---0----------------------------------------
--------2-----0----------2-------2----------2------0---------3-----3---3-3--3--3-
-------0-0------0-------0-0-----0----------0------------------2---0-----2----0--0
0h1--1------3----------1-------1----0h1---1---0------0h1-------1-----------------
-------------------0--------0----------------------------------------------------







VERSE 3

(Am)Not sure why her (G/B)path crossed (C)mine, (F/C)accident
or (C)grand (G)design,

 Am          G/B    C                F/C          Am**  G

-------------------------------------0---0--------------2-2-------2-2------
-0---0-------2------3-3------3-3---------------3---------------------------
---------2-----0----------2-------2-----------3-3-0h2-------------------0--
--------0-0------0-------0-0-----0---0h2---2R0-------0-----0-0h2-0-----2---
-0h1--1------3----------1-------1----1-----1----------1----0----------0----
--------------------0--------0---------------------------------------------


Am** 
0
0
2
0
1
0

Or (Am)Maybe (G/B)God just (C)kinda (F/C)likes
Cowboys and (G)Angels(C)

 Am    G/B    C            F/C                    G    F/C

---------------------------0-0-----0-0-----0-0----2----0-
-0-----2------3-3----------3-------3-------3------2----3-
---2-----0-----------------3----3--3----3--3----3-0----3-
----0------0---------------2---2-2-2---2-2-2---2--0----2-
-1-----3----------1--------1--1----1--1----1--1---0----1-
--------------0------------0-------0-------0------3----0-

Chorus


  F/C  G       C    Am
We Ride side by side

            F/C G           Am G(Walking Down)
A cloud of dust, a ray of light

    F/C
My Touch is her temptation

    G
Her kiss is my salvation
    
       C           G/B        Am  G  F/C
She's sweet, I'm wild, we're dangerous

            G    Am
Cowboys and Angels



BRIDGE

G   C   Am
F/C G   Am
F/C G   C   G/B  Am   G  F/C

(Pause before beginning to pick again)


VERSE 1/4


(Am)There's a want, (G/B)and there's (C)a need,
 (F/C)There's a histor(Am)y (G)between

 Am          G/B    C                F/C          Am**  G

-------------------------------------0---0--------------2-2-------2-2------
-0---0-------2------3-3------3-3---------------3---------------------------
---------2-----0----------2-------2-----------3-3-0h2-------------------0--
--------0-0------0-------0-0-----0---0h2---2R0-------0-----0-0h2-0-----2---
-0h1--1------3----------1-------1----1-----1----------1----0----------0----
--------------------0--------0---------------------------------------------


Am** 
0
0
2
0
1
0

(Am)Girls Like (G/B)you, and (C)Guys like (F/C)me,
 Cowboys (G)and 

Am    G/B    C             F/C(PAUSE)                 G 

---------------------------0-----0-----0-0-----0-0----2------
-0-----2------3-3----------3-----------3-------3------2------
---2-----0-----------------3--------3--3----3--3----3-0------
----0------0---------------2-------2-2-2---2-2-2---2--0------
-1-----3----------1--------1------1----1--1----1--1---0------
--------------0------------0-----------0-------0------3------



 Am          G/B    C                Am           Gmaj      F/C

--------------------------------------------------2---------0----0----0-
-0---0-------2------3-3------3-3-----0---0------------------------------
---------2-----0----------2-------2----------2------0---------3-----3---
--------0-0------0-------0-0-----0----------0------------------2---0----
-0h1--1------3----------1-------1----0h1---1---0------0h1-------1-------
--------------------0--------0------------------------------------------


Folks, please rate & comment for this
took a truly long time to work on,
even with the help of the video. 
I hope you all enjoy!
Any questions/suggestions,
please leave a comment below! Happy picking!

-Diego








 Comments (click here to add a non-facebook comment)
Home | FAQs | Privacy | Terms | Advertise | Contact
Top 100 Tab Sites