Give Kudos?
Are you sure you want to give kudos to Vince_tml?

Add To Songbook?
Are you sure you want to add this song to your songbook?


2,634 bands | 34,497 songs
Search: Register FREE! | Login
Browse Songs:
Browse Bands:
Tool Panel
Discuss This Song

1 2 3 4 5





Conway Twitty - Rest Your Love On Me (Chord)
Album: A Bridge That Just Won't Burn (1995)
Submitter: Vince_tml (14) on 11/7/17
Month Views: 138 | Total Views: 138
Moderator: Ray Terry | Report This Song?
Song Tools

Comment

Songbook

Kudos

Show Chords

Print

ong: Rest Your Love on Me
Artist: Conway Twitty


Capo 1st fret

Intro:

(D),(A),(G)
(A),(D)
(A),(G)

Lead:

----0-2--2h3-0--0h2-------0-2-3-/5-5---2h3-0-0-5-0--------------------11-
--3-----------------3---3--------------------------3-----2----0----------
-------------------------------------------------------------------------
-------------------------------------------------------------------------
-------------------------------------------------------------------------
-------------------------------------------------------------------------


(D)
Maybe you don't know me any more than I know you
 	  	  	  	        (A) 	 
And I wouldn't blame you if you walked away
 	   (Em) 	  	    (A) 	  	       (Em) 	  	 (A) 
I've been watching you all evening with those teardrops in your eyes
       (Em) 	        (A) 	        (D)
And it touches me much more than I can say
 	    (D) 	 
You know I hate to think that someone could have hurt someone like you
       (D7) 	  	  	       (G)
And if I was him I'd be right by your side

(G)      (A) 	  	 (D)
Lay your troubles on my shoulder
 	  (F#m) 	        (G)
Put your worries in my pocket
 	  (A) 	        (D)  (D7)
Rest your love on me a while
(G)      (A)   	  	 (D)
Lay your troubles on my shoulder
 	  (F#m) 	        (G)
Put your worries in my pocket
 	   (A) 	        (D)  (( (C/D) (G6) (A)  ))------1st chorus only
Rest your love on me a while

Saw you in the corner from the moment I walked in
Saw your lonely face across the room
No I won't forget you and the way it could have been
Why'd you have to leave so soon
You know I hate to think there's someone you loved instead of me
'Cause at times like this I'd be right by your side

Lay your troubles on my shoulder
Put your worries in my pocket
Rest your love on me a while
Lay your troubles on my shoulder
Put your worries in my pocket
Rest your love on me a while 

1st Solo:

(A)
(G) (D) (A) (D)
Repeat


1st Solo Lead:

-----------------------------10p8------13-11-10-11-13/15------------------------------------------------
---3p1-----6p4-----11p8-----------11-----------------------13-13\11--9/11-11----------------------------
-------3/------7/-------10----------------------------------------------------10/12\10---10\8-7/8------- 	 X2
--------------------------------------------------------------------------------------------------------
--------------------------------------------------------------------------------------------------------
--------------------------------------------------------------------------------------------------------

2nd Solo Rhythm same as chorus 
 Comments (click here to add a non-facebook comment)
Home | FAQs | Privacy | Terms | Advertise | Contact
Top 100 Tab Sites