Give Kudos?
Are you sure you want to give kudos to rune?

Add To Songbook?
Are you sure you want to add this song to your songbook?


2,726 bands | 35,161 songs
Search: Register FREE! | Login
Browse Songs:
Browse Bands:
Tool Panel
Discuss This Song

1 2 3 4 5



Clay Walker - That's Us (Tab)
Album: Rumor Has It (1997)
Submitter: rune (8) on 11/6/03
Month Views: 9 | Total Views: 3,757
Moderator: jhempel24 | Report This Song?
Song Tools

Comment

Songbook

Kudos

Show Chords

Print

Clay Walker - That's Us
Rumor Has It


Capo 2.

The ^ indicates a strum (down on the e and B strings)

Intro
  D ^      D/G ^      D ^      D/G ^
e---2-0---------2-0------2-0---------2-0-----|
B---3---3-----3-3---3----3---3-----3-3---3---|
G--2---------2--------0-2---------2----------|
D-0---------0----------0---------0-----------|
A------0--0--------0--------0--0--------0----|
E----------3--------------------3------------|

D           A/C#    Bm7
Sometimes I ignore reality
  A           G
But baby that's me
                    A
I've always been a dreamer
D             A/C#             Bm7
You'd rather face the cold hard truth
    A            G
But baby that's you 
                     A
You called it like you see it
 G                                 D
Half the time my head's up in the clouds
      G                        D/F#             Em        A
And you're the only thing that keeps me on the ground


Chorus
     D
That's us
    G               A
As different as the night and day
     D
That's us
        G                  A
But the good Lord had it planned that way
     D
That's love
   G                 A
He looked down and knew
            Bm     Bm/A    G *
A man would need a woman's touch
   G                              Asus  A **
Two souls come together and make one
      D    D/G  
That's us


And when I feel I just can't go on
The dreams have come and gone
I know you'll always be there
And when that old cold truth is hard to face
I'll carry you away
Years from now I'll still care
In rockin' chairs we'll share old memories
Made up of part of you and part of me

Chorus

----------------------------------

Licks (don't put to much in these)

*
  G
e--3------2-----0-------
B-------3-----3------3---
G-----0-----0------0-----
D------------------------
A------------------------
E--3---------------------

**
  Asus        A
e--------------------
B-------3-----0h2----
G-----2---2----------
D---2-------2--------
A-0-----0-----0------
E--------------------

 Comments (click here to add a non-facebook comment)
Home | FAQs | Privacy | Terms | Advertise | Contact
Top 100 Tab Sites