Give Kudos?
Are you sure you want to give kudos to quilley?

Add To Songbook?
Are you sure you want to add this song to your songbook?


2,635 bands | 34,497 songs
Search: Register FREE! | Login
Browse Songs:
Browse Bands:
Tool Panel
Discuss This Song

1 2 3 4 5





Chris Young - Drinkin Me Lonely Intro Correct (Intro)
Album: Chris Young (2006)
Submitter: quilley (1) on 3/12/10
Month Views: 75 | Total Views: 11,877
Moderator: mitch32789 | Report This Song?
Song Tools

Comment

Songbook

Kudos

Show Chords

Print

                            
----------------------------R-----------------------------
----------3---------------3-------------------------------
--0h2-0-----0---0-0h2-0-----0------------0-2-2h3h2-0h2p0--
--------0-----0---------0----------0-1-3------------------
--------------------------------3-------------------------
----------------------------------------------------------


----------3----3----3----3--------------------------------
----------0----0----0----3--------------------------------
-------0-------0----0----0---Into Verse-------------------
-----0-------0----0----2----------------------------------
-------------0----2----3----------------------------------
--3-------------------------------------------------------

*** The note with R above it denotes "Let Ring"

Leave some feedback!
 Comments (click here to add a non-facebook comment)
Home | FAQs | Privacy | Terms | Advertise | Contact
Top 100 Tab Sites