Give Kudos?
Are you sure you want to give kudos to vukev?

Add To Songbook?
Are you sure you want to add this song to your songbook?


2,629 bands | 34,421 songs
Search: Register FREE! | Login
Browse Songs:
Browse Bands:
Tool Panel
Discuss This Song

1 2 3 4 5





Chris Young - Aw Naw (Solo)
Album: A.M. (2013)
Submitter: vukev (4) on 12/12/15
Month Views: 35 | Total Views: 1,471
Moderator: mitch32789 | Report This Song?
Song Tools

Comment

Songbook

Kudos

Show Chords

Print

Aw Naw
Chris Young

All bends are whole steps.


Guitar Solo (Starts at 2:20)

E ---------------------------------------------------------
B ---------------------------------------------------------
G --12--12---11-11--9\7---11/12--12---11-11--9\7--/12-12\--
D ---x---x---x--x---x-x---x---x---x---x--x---x-x----x--x---
A --10--10---9--9---7\5---9-/10--10---9--9---7\5--/10-10\--
E ---------------------------------------------------------

E ----------12-----------------------12--------------------
B --15b~~------15p12----15-----12-------15p12----15p12-----
G -------------------14----14b----------------14-----------
D ---------------------------------------------------------
A ---------------------------------------------------------
E ---------------------------------------------------------

E ----------------------15--17b-r-b~~~---------------------
B --------15-17---15-17-----------------------------------
G --14/16-------16----------------------------------------
D --------------------------------------------------------
A --------------------------------------------------------
E --------------------------------------------------------

Shorter Section (starts at 2:46)

E ---------------------------------------------------------
B ---------------------------------------------------------
G --12--12---11-11--9\7---11/12--12---11-11--9\7--/12-12\--
D ---x---x---x--x---x-x---x---x---x---x--x---x-x----x--x---
A --10--10---9--9---7\5---9-/10--10---9--9---7\5--/10-10\--
E ---------------------------------------------------------

e ---12---12--------------------17/19----------------------
B ---15b--15b----------15----17-------17~~~----------------
G -----------------/16----16-------------------------------
D ---------------------------------------------------------
A ---------------------------------------------------------
E ---------------------------------------------------------
 Comments (click here to add a non-facebook comment)
Home | FAQs | Privacy | Terms | Advertise | Contact
Top 100 Tab Sites