Give Kudos?
Are you sure you want to give kudos to Lightnin81?

Add To Songbook?
Are you sure you want to add this song to your songbook?


2,636 bands | 34,517 songs
Search: Register FREE! | Login
Browse Songs:
Browse Bands:
Tool Panel
Discuss This Song

1 2 3 4 5





Chris Stapleton - Nobody To Blame But Me Intro/solo (Lead)
Album: Traveller (2015)
Submitter: Lightnin81 (0) on 3/3/16 1 comment
Month Views: 159 | Total Views: 5,669
Moderator: lmofle | Report This Song?
Song Tools

Comment

Songbook

Kudos

Show Chords

Print

This tab is based off his Saturday Night Live Performance....Yet its pretty spot on compared to the album version

Intro Capo 2 Drop D Tuning

E------------------------------------
B------------------------------------
G------------------------------------
D------------------------------------
A----2h3-3-3-3-2-0-------------------
D-----------------------3\5-5-5-5-3-0

Repeating Lick Played Throughout Verses

E---------------2---------------------
B-----------------3-------------------
G---------------2---------------------
D-------------------------------------
A--3p0------------------------------
D--------3b0--------------------------


Solo

E--------------------------------------------------------
B--------------------------------------------------------
G---0h222--0h222--0h222--0h222---0h2 0-------------------- Repeat x 2
D--0----- 0------0------0------0-------3b-0-----0-3-0----
A-------------------------------------------3-0----------
D--------------------------------------------------------
 
E----------------------- 
B-----------------------
G----------0------------ Play D Chord 3x Then Repeat Once
D--------0---3b-0-------
A--0-1-2----------3-0---
D-----------------------

Last Lick - Played a little slower
E----------------------
B----------------------
G-----------0---------- Then Play D Chord 
D---------0---3b-0-----
A--0-1-2-----------3-0- 
D----------------------
 Comments (click here to add a non-facebook comment)
Thanks for the tab!

-lmofle | 3/3/2016
Home | FAQs | Privacy | Terms | Advertise | Contact
Top 100 Tab Sites