Give Kudos?
Are you sure you want to give kudos to ChiefKomosakawa?

Add To Songbook?
Are you sure you want to add this song to your songbook?


2,722 bands | 35,151 songs
Search: Register FREE! | Login
Browse Songs:
Browse Bands:
Tool Panel
Discuss This Song

1 2 3 4 5



Chris Cagle - Miss Me Baby (Solo)
Album: Anywhere But Here (2005)
Submitter: ChiefKomosakawa (0) on 12/3/05
Month Views: 8 | Total Views: 5,304
Moderator: jhempel24 | Report This Song?
Song Tools

Comment

Songbook

Kudos

Show Chords

Print

Symbols:
/- slide up    h- hammer
\- slide down  p- pull off
b- bend


E------------------------------------------------------------------------
B--------------9----------------9-------------------------6---6/11-11-11-
G------6-8-6-8b-8r-6--8p6-6-8-8b-8r-6-8-8b----------8-6-8---8------------
D--6-8------------------------------------6-6---8-6----------------------
A------------------------------------------------------------------------
E------------------------------------------------------------------------


E-----11--13--14-----13--14--16-16---
B-6/11--11--11--11/13--13--13--------
G------------------------------------
D------------------------------------
A------------------------------------
E------------------------------------
 Comments (click here to add a non-facebook comment)
Home | FAQs | Privacy | Terms | Advertise | Contact
Top 100 Tab Sites