Give Kudos?
Are you sure you want to give kudos to denalitwinkie2s?

Add To Songbook?
Are you sure you want to add this song to your songbook?


2,729 bands | 35,173 songs
Search: Register FREE! | Login
Browse Songs:
Browse Bands:
Tool Panel
Discuss This Song

1 2 3 4 5



Chris Cagle - Look At What I've Done (Intro)
Album: Chris Cagle (2003)
Submitter: denalitwinkie2s (1) on 12/12/05 1 comment
Month Views: 5 | Total Views: 5,376
Sound Byte: Listen
Moderator: jhempel24 | Report This Song?
Song Tools

Comment

Songbook

Kudos

Show Chords

Print

Chris Cagle 
Look at What I've Done

I took a shot at this one....it was pretty tough so let 
me know what you think and if there are any mistakes...
thanks!  please rate or comment

CAPO 2


E------------3--2--------------2---0------------------------------
B--------------------------------------------------0------1-------
G------0----------------2------------------0---------0------0-----
D----0----------------0-----------------2---------------2---------
A----------------------------------------------2---3---------------
E--3-----3------2-2--------2-------0-------------------------------


E------------3--2--------------2---0------------------------------
B--------------------------------------------------0------1-------
G------0----------------2------------------0---------0------0-----
D----0----------------0-----------------2---------------2---------
A----------------------------------------------2---3---------------
E--3-----3------2-2--------2-------0-------------------------------
 Comments (click here to add a non-facebook comment)
GREAT SONG! i wanted to know if anyone had this song tabed out, i'd love to have it...
-wino | 5/29/2008
Home | FAQs | Privacy | Terms | Advertise | Contact
Top 100 Tab Sites