Give Kudos?
Are you sure you want to give kudos to vukev?

Add To Songbook?
Are you sure you want to add this song to your songbook?


2,729 bands | 35,173 songs
Search: Register FREE! | Login
Browse Songs:
Browse Bands:
Tool Panel
Discuss This Song

1 2 3 4 5



Chris Cagle - Chicks Dig It (Solo)
Album: Chris Cagle (2003)
Submitter: vukev (0) on 6/23/09
Month Views: 3 | Total Views: 4,975
Moderator: jhempel24 | Report This Song?
Song Tools

Comment

Songbook

Kudos

Show Chords

Print

Chris Cagle
Chicks Dig It
Solo

Because some of the notes are played fast and are hard to hear, a note or two may be off but it's
pretty close.  If you think something is wrong and you have a suggestion for correcting it, let me
know and I'll take a listen.  90% of this tab should be right on though.

Key:
b  = bend to note in ( )
bh = bend to note in ( ) and hold
r  = release bend
h  = hammer on
p  = pull off
~  = vibrato


e--10---------------------------------------------------------------------------------------
B-----13-----------------------------13-----------------------------------------------------
G--------12b(14)rp10----10--12bh(14)----12(14)r--10--12--10--12b(14)r--10-12/14\12p10-------
D--------------------12---------------------------------------------------------------12~\--
A-------------------------------------------------------------------------------------------
E-------------------------------------------------------------------------------------------


e-------------------------------------------------------------------------------------------
B--------------10-10-------------10-10------------------------------------------------------
G--------------10-10-------------10-10---------------------5--------------------------------
D-----12-10-12---------12-10-12---------12~\-----------5/7---7\5p3---3--5/7\5---5p3p0-------
A--12--------------------------------------------------------------5------------------5-----
E-------------------------------------------------------------------------------------------

1 bar Fiddle Solo, then:

e----------------------------------------------
B--6-------------------------------------------
G--7-----5------5-----5------------------------
D----5h7----7p5---5h7----5h7--5/3p0------------
A------------------------------------5---------
E----------------------------------------------

1 bar Fiddle Solo, then:

e--------------------------------------------------------
B---------------------------------------------12-13-15~--
G------------------------------------10h12/14------------
D---------------------------10h11h12---------------------
A----------8h9h10--10h11h12------------------------------
E---8h9h10-----------------------------------------------

 Comments (click here to add a non-facebook comment)
Home | FAQs | Privacy | Terms | Advertise | Contact
Top 100 Tab Sites