Give Kudos?
Are you sure you want to give kudos to MUSICISLIFE615?

Add To Songbook?
Are you sure you want to add this song to your songbook?


2,680 bands | 34,867 songs
Search: Register FREE! | Login
Browse Songs:
Browse Bands:
Tool Panel
Discuss This Song

1 2 3 4 5





Carter Family - Wildwood Flower (Tab)
Submitter: MUSICISLIFE615 (7) on 4/21/02
Month Views: 28 | Total Views: 17,743
Moderator: jonathan78 | Report This Song?
Song Tools

Comment

Songbook

Kudos

Show Chords

Print

WILDWOOD FLOWER
BY:   A.P. CARTER

       C                                                                        G7
|---0-----------|------0-0-----0--------|----0-0---0-------0-----|---1--1---------------------
|---1-----------|------1-1---------1-1- |---1-1------------------|---0--0------0----------0---
|---0-----------|---0--0----2-----------|---0--------------------|---0--0---------------------
|------2--3-----|-----------------------|-2-----3------2---------|-0-----------2H0------------
|-3-------------|-----------------------|------------------------|------------------2---------
|---------------|-----------------------|------------------------|----------------------------


        C
|------0--0------0--0---0-------0---0-----0-----0---------0---0------0--------------|
|------1-------------1------------1--------------------------1--------------1---1---|
|------0----0-------0-------------0---------------------0---0--------2--------------|
|------------------------------------------2-----3----------------------------------|
|--3-------------------------3------------------------------------------------------|
|-----------------------------------------------------------------------------------|


	G7	   C
|----0-0--0----0----0----------1-1-------------------0-0-----0-----0-----0--0-----0------
|------1-------------------------0---------------------1---------------------1---------1-
|--------------------------------0-------0----0-------0------------0--------0------0-----
|-2---------3-----2-------0---------2H0--------------------2-----------------------------
|-------------------------------------------2-------3---------------------3--------------
|----------------------------------------------------------------------------------------

	F	C
|-0---------0------------0--0-------0---0-------1--1---------------0--0---0----------0---|
|--------1-----3----1---1-----------1---------1-------0------------1-------------------1-|
|-----0------------------0------0---0-------2--------------2----0--0-----0---------------|
|----------------------------------------------------------------------------------------|
|------------------------------------------------------------------------------------3---|
|----------------------------------------------------------------------------------------|

	G7
|--------0--0-----0---0---0--0-------------0-------0------------1--1-----------------|
|--------1-----------------1---------------------------------------0-----------------|
|--------0--------------------------------0-------0-------------------------0---0----|
|--0H2-------2------------------0H2------------------2------0-------2H0--------------|
|-------------------------------------------------------------------------------2----|
|------------------------------------------------------------------------------------|




     C	E7
|----0---0----0---0--0-           |-------1--1------------------
|----1-------------1---           |------0---------0--------0---
|----0-----2------0----(X3)       |-----0-----------------------
|----------------------           |-----------------------------
|-3--------------------           |------------0-------2--------
|----------------------           |-3---------------------------
OH ILL TWINE WITH MY MINGLED AND WAVING BLACK 

C
|-----0---0-----0----0----0----------------------------------------------|
|-----1---------------1--------------------------------------------------|
|-----0---------------0--------(4X)--------------------------------------|
|-----------2------------------------------------------------------------|
|-3----------------------------------------------------------------------|
|------------------------------------------------------------------------|
HAIR              WITH ROSES  SO  RED     AND THE 

G7	C
|----1---1-----1----1------------------0---0------0-----0----0-----------|
|----0---------0-----0------------------1----------------1---------------|
|----0-----------------------------------0----------------0---------(3X)-|
|----------0------2----------------------------2-------------------------|
|-3-------------------------------3--------------------------------------|
|------------------------------------------------------------------------|

LILIES SO FAIR .        AND THE MYRTLE SO

	F
|------0---0------0---------------------------1--1--1--1--1---1---------|
|------1---------------------------------------1-----1------1-----------|
|------0---------------------------------------2-----2------------------|
|-------------0-------2------------------3------------------------------|
|-----------------------------------------------------------------------|
|-3---------------------------------------------------------------------|
BRIGHT . WITH THE                            EMERALDS

C	G7
|------0---0------0---0---0----------------------1---1----1------1------|
|------1--------------1---------------------------0---------0------0----|
|------0--------------0-------(X3)--------------0-----------------------|
|--------------2--------------------------------------------------------|
|--3-----------------------------------------------------0------2-------|
|---------------------------------------------3-------------------------|

HUE. THE PALE AND THE LEADER   AND EYES LOOK LIKE 

C
|--------0---0-----0-----0----0---------|
|--------1----------------1-------------|
|--------0----------------0-------------|
|---------------2-----------------------|
|---------------------------------------|
|-3-------------------------------------|

BLUE. 



(SAME CHORD PROGRESSION AND TABATURE )

I WILL DANCE, I WILL SING AND MY LIFE SHALL BE GREY	
I WILL CHARM EV'RY HEART, IN HIS CLOWN I WILL SWAY
WHEN I WOKE FROM DREAMING , MY IDOLS WAS CLAY
ALL PORTION OF LOVE HAD ALL FLOWN AWAY.

OH , HE TAUGHT ME TO LOVE HIM AND PROMISED TO LOVE,
AND TO CHERISH ME OVER ALL OTHERS ABOVE
HOW MY HEART IS NOW WOND'RING NO MISERY CAN TELL
HE LEFT ME NOW WARNING , NOW WORDS OF FAREWELL

OH HE TAUGHT ME TO LOVE HIM AND CALLED ME HIS FLOWER
THAT'S BLOOMING TO CHEER HIM THROUGH LIFES DREARY HOUR
OH, I LONG TO SEE HIM AND REGRET THE DARK HOUR 
HE'S WON AND NEGLECTED THIS PALE WILDWOOD FLOWER.
 Comments (click here to add a non-facebook comment)
Home | FAQs | Privacy | Terms | Advertise | Contact
Top 100 Tab Sites