Give Kudos?
Are you sure you want to give kudos to Koichi Kondo?

Add To Songbook?
Are you sure you want to add this song to your songbook?


2,632 bands | 34,462 songs
Search: Register FREE! | Login
Browse Songs:
Browse Bands:
Tool Panel
Discuss This Song

1 2 3 4 5





Brothers Osborne - Rum (Chord)
Album: Pawn Shop (2016)
Submitter: Koichi Kondo (1101) on 7/12/14
Month Views: 752 | Total Views: 45,816
Moderator: SaraR08 | Report This Song?
Song Tools

Comment

Songbook

Kudos

Show Chords

Print

Rum
Written by Barry Dean, John Osborne & T.J. Osborne
Recorded by Brothers Osborne

(Guitar: Drop D Tuning, Capo on 1)
(Bass Guitar: Standard Tuning)

(Intro.: Guitar)
E -------|--------------------|--------------------|
B -------|--------------------|--------------------|
G -------|--------------------|--------------------|
D -------|------0-0-----------|------0-0-----------|
A -0h2-0-|-----2--------0h2-0-|-----2--------0h2-0-|
D -------|-0--------0---------|-0--------0---------|

(Verse: Guitar)
Starin' at the prettiest part of this powder keg world
D |------0-0-----------|------0-0-----------|
A |-----2--------0h2-0-|-----2--------0h2-0-|
D |-0--------0---------|-0--------0---------|

Sit-tin' with the finest example of a beautiful girl
D |------0-0-----------|------0-0-----------|
A |-----2--------0h2-0-|-----2--------0h2-0-|
D |-0--------0---------|-0--------0---------|

If we hadn't hit the brakes, we'd have no idea, paradise was hidin' right here ---
D |------0-0-----------|------0-0-----------|
A |-----2--------0h2-0-|-----2--------0h2-0-|
D |-0--------0---------|-0--------0---------|

(Chorus: Guitar)
Dippin' our (D)toes (Bm)(D) in the water, (Bm) (A) (D)I don't care (Bm)(D) if it gets any (Bm)hotter
(A)It's (D)you and (Bm)me (D) rememberin' (Bm)how to (A)have (D)fun (Bm)(D) 
Let's (E)put (F)(F#)our (D)hearts (Bm)(D) together
(Bm) (A) (D)Two parts (Bm)love (D) and a pinch of good (Bm)weather (A)
And (D)top it all (Bm)off (D) with the sun, --- and mix it with (D)rum, --- mm, mm, mm, mm

(Chorus Bass)
G |-------------------|-------------------|
D |-1--1--1-1--1------|-1--1--1-1--1------|
A |---3----------3----|---3----------3--1-|
E |-------------------|-------------------|

G |-------------------|------------------0-|
D |-1--1--1-1--1------|-1--1--1-1--1-3-4---|
A |---3----------3--1-|---3----------------|
E |-------------------|--------------------|

G |-------------------|-------------------|
D |-1--1--1-1--1------|-1--1--1-1--1------|
A |---3----------3--1-|---3----------3--1-|
E |-------------------|-------------------|

G |-----------------|-------
D |-1--1--1-1-------|-1-----
A |---3-------------|-------
E |-----------------|-------

(Solo Bass)
G |-------------------|-------------------|
D |-1--1--1-1--1------|-1--1--1-1--1------|
A |---3----------3--1-|---3----------3--1-|
E |-------------------|-------------------|

(Verse Guitar)
We (D)came out (Bm)here (D)to do a whole lotta (Bm)noth-(D)in'
And we're doin' pretty (Bm)good (D) I think (Bm) (A)
The (D)only one (Bm)thing (D) we need to worry a-(Bm)bout (D) is fillin' up --- when the ice cubes clink

(Verse Bass)
D |-1--1--1-1---1---|-1--1--1-1------|-1--1--1-1---1-1-|-1---
A |---3--------3----|---3--------3-1-|---3--------3----|-----

Repeat Chorus

(Verse: Guitar)
The (D)lucky folks go to the ocean, the lake's for the landlocked ones
We got a tarp in a truck bed, a kiddie pool, a slip and sleds, let that garden hose run
E |----------------------------|
B |-----3-------------3--------|
G |---2---2-1/-2----2---2-1/-2-|
D |-0-------------0------------| x 4 times
A |----------------------------|
D |----------------------------|

Repeat Chorus

And (Bm)mix it (A)with (D)rum, (Bm)mm, (A)mm, (D)mm, mm
And (E)mix (F)it (F#)with (D)rum, --- mm, mm, mm, mm -----
 
 Comments (click here to add a non-facebook comment)
Home | FAQs | Privacy | Terms | Advertise | Contact
Top 100 Tab Sites