Give Kudos?
Are you sure you want to give kudos to boxelder?

Add To Songbook?
Are you sure you want to add this song to your songbook?


2,675 bands | 34,837 songs
Search: Register FREE! | Login
Browse Songs:
Browse Bands:
Tool Panel
Discuss This Song

1 2 3 4 5





Brad Paisley - Yes, You Will (Intro)
Album: TIme Well Wasted (2005)
Submitter: boxelder (0) on 8/19/05 2 comments
Month Views: 4 | Total Views: 2,601
Moderator: Ray Terry | Report This Song?
Song Tools

Comment

Songbook

Kudos

Show Chords

Print

Brad Paisley - Yes You Will INTRO


b - bend
bh - bend and hold
r - release
p - pull off
h - hammer on
x - muted 
/ - slide up
\ - slide down
~ - vibrato

Questions/comments/complaints email boxelder at hlinet.com




E--------------------------------------------------------
B------------------------5----5--------------------------
G------------------------4b---4--------------------------
D--------------2---4-------------4br-2-------------------
A------------2---2---2-----------------4b-4b-4b-4b-4br-2-
E--0h2p0h2h4---------------------------------------------



   *bend into pitch of A
E------------------------------------------------------------
B-------------------------------5--5-------------------------
G--------------2----------------4br4-------------------------
D---------------------------2--------4br-2-------------------
A--------0--0-----------------2------------4b-4b-4b-4b-4br-2-
E--*4b~---------------0h2h4----------------------------------


   *bend into pitch of A
E------------------------------------------------------
B------------------------------------------------------
G------------------------------------------------------
D------------------------------------------------------
A------0-0----0-0----0-0-0-----------------------------
E--*4b-----4b-----4b-------4--2~~p0--------------------

 Comments (click here to add a non-facebook comment)
where is this from?
-tonyjay87 | 8/19/2005
if you buy it at target you get a bonus disc. it's track 1.

i'll tab the rest if i get time/ambition :)


-boxelder | 8/20/2005
Home | FAQs | Privacy | Terms | Advertise | Contact
Top 100 Tab Sites