Give Kudos?
Are you sure you want to give kudos to MattClark?

Add To Songbook?
Are you sure you want to add this song to your songbook?


2,679 bands | 34,861 songs
Search: Register FREE! | Login
Browse Songs:
Browse Bands:
Tool Panel
Discuss This Song

1 2 3 4 5





Brad Paisley - Two Feet Of Topsoil (Lead)
Album: Part II (2001)
Submitter: MattClark (0) on 2/16/05
Month Views: 8 | Total Views: 2,985
Moderator: Ray Terry | Report This Song?
Song Tools

Comment

Songbook

Kudos

Show Chords

Print

2nd verse.                H=hammer on                 
I was kinda hopen         P=pull off                  
I could dig my            b=bend                    
back out.                                                 

E(----------------------------------------H-P-P-----------)
B(-------------------------------------0-1^3^1^0-P--------)
G(--------------------P-------0---0-1-2---------2^0-P-----)
D(-----------P-------1^0-0-1-2-1-2-----------------2^0----)
A(----------1^0-0-1-3---3-----------------------------3---)
E(-----0-1-3---3------------------------------------------)


A couple dozen roses
maby get you back
some how.

E(-----0--0--0-0-0-0-0-0-p---p----------------------------)
B(-----4b-4b-4b4b--4b5--3^0-1^0-p---------p---------------)
G(-----------------------------3^0-------5^0-0-p-p--------)
D(--------------------------------------------4^3^1-------)
A(-------------------------------------------------3------)
E(--------------------------------------------------------)

       (Bend the B string-
        notes on the 4rth-
        fret 1/4 to match-
        the open E string)
 Comments (click here to add a non-facebook comment)
Home | FAQs | Privacy | Terms | Advertise | Contact
Top 100 Tab Sites