Give Kudos?
Are you sure you want to give kudos to blugraspickr?

Add To Songbook?
Are you sure you want to add this song to your songbook?


2,693 bands | 34,920 songs
Search: Register FREE! | Login
Browse Songs:
Browse Bands:
Tool Panel
Discuss This Song

1 2 3 4 5





Brad Paisley - Turf's Up (Intro)
Album: Play (2008)
Submitter: blugraspickr (2) on 3/4/09 1 comment
Month Views: 9 | Total Views: 3,206
Moderator: Ray Terry | Report This Song?
Song Tools

Comment

Songbook

Kudos

Show Chords

Print

Turf's Up
Brad Paisley
Play
Tabbed By Blugraspickr

This Is going to be an attempt. 
I don't really have an ear for tabbing notes, 
so I'm not 100% sure about all of it.
I believe it to be about 75% accurate. 
Hopefully this will jump start someone to do the rest of the song.
I think the piece I've figured out is up until 40 or 42 seconds. 
Well here goes nothing.

Whammy bar = n then the  amount to dip.
h- hammer on
p-pull off
TP-tremolo  picking


                            n1/2
e-------------------8------11--12------------------------------------
B--------8-----10----------------------------------------------------
G--/9----------------------------------------------------------------
D--------------------------------------------------------------------
A--------------------------------------------------------------------
E--------------------------------------[12-11-10-9-8-7-6-5-4-3-2-1]--
                                                  TP
There is an Am strumming pattern going on during this.
                       n1/2
e---------8------[11-12-11-12-11]---8---------------------------------------
B-----x---------------------------------10----------------------------------
G--x------------------------------------------------------------------------
D---------------------------------------------------------------------------
A---------------------------------------------------------------------------
E---------------------------------------------------------------------------

Main Riff


                          n1/2                            n1/2    x2
e---------------------------1------------------------------0----
B---------------------------1------------------------------1----
G---------------------------2------------------------------2----
D---------0h2p0----0--------3------------0h2p0----------2-------
A--0-00-3-------3--------3------------2---------3-2--0----------
E---------------------1----------0-00---------------------------


e--------------------------1-------5----13--------
B--------------------------1-------6----13--------
G--------------------------2-------5----14--------
D--------0h2p0----0--------3----------------------
A--0-003-------3-------3--------------------------
E-------------------1-----------------------------
                               n1/2
e-------------------------------1----------------
B-------------------------------1----------------
G-------------------------------2----------------
D------------0h2p0----------2--------------------
A---------2---------3-2--0-----------------------
E---0-00-----------------------------------------



                             n1/2
e-----------------------------1-----------------------------------
B-----------------------------1-----------------------------------
G-----------------------------2-----------------------------------
D---------0h2p0----0----------3-----------0h2p0---------2---------
A--0-00-3-------3---------3-------------2-------3-2--0------------
E---------------------1------------0-00---------------------------

Now this is where I get lost. Through all this hopefully it was a good start.

 Comments (click here to add a non-facebook comment)
Try looking at my Turf's Up tab for any ideas. It is under Brad Paisley Winter Wonderland. I accidentally put it under that name.
-spencerlsu | 3/6/2009
Home | FAQs | Privacy | Terms | Advertise | Contact
Top 100 Tab Sites