Give Kudos?
Are you sure you want to give kudos to mooman2679?

Add To Songbook?
Are you sure you want to add this song to your songbook?


2,693 bands | 34,919 songs
Search: Register FREE! | Login
Browse Songs:
Browse Bands:
Tool Panel
Discuss This Song

1 2 3 4 5





Brad Paisley - Time Well Wasted (Solo)
Album: TIme Well Wasted (2005)
Submitter: mooman2679 (1) on 8/20/05
Month Views: 3 | Total Views: 3,831
Moderator: Ray Terry | Report This Song?
Song Tools

Comment

Songbook

Kudos

Show Chords

Print

Solo for a great song of his new cd!  That fast part is as
good as I could get it,  I think it's right...And if it 
isn't, it's close enough to get the jist...



..................................................................
rbh = Release then bend and hold
..................................................................



Tyler 

mooman2679 at gmail.com


e------------------------------0------------------------------3------
B-------------------5--6-5-5------------------------------3----6-----
G-------------------5bh----5rbh-5-5r-------------------3-5-5bh--5r---
D------------3---3------x-----------------------3-0h2/3-3------------
A--1-----1-3b--3b--------------------------0h3h5-5-------------------
E---1-1h3-x---x---x-------------------1-3/5--------------------------

                          
e------17-15-13-12---------------------------
B-----------------13-----------13------------
G--3/17-------------12----10h12--12/14~------
D---------------------14---------------------
A--------------------------------------------
E--------------------------------------------
 Comments (click here to add a non-facebook comment)
Home | FAQs | Privacy | Terms | Advertise | Contact
Top 100 Tab Sites