Give Kudos?
Are you sure you want to give kudos to MattClark?

Add To Songbook?
Are you sure you want to add this song to your songbook?


2,664 bands | 34,754 songs
Search: Register FREE! | Login
Browse Songs:
Browse Bands:
Tool Panel
Discuss This Song

1 2 3 4 5





Brad Paisley - Time Warp (Intro)
Album: TIme Well Wasted (2005)
Submitter: MattClark (1) on 1/30/06 5 comments
Month Views: 22 | Total Views: 7,135
Moderator: Ray Terry | Report This Song?
Song Tools

Comment

Songbook

Kudos

Show Chords

Print

 
                                                            
E(---------------------------------)
B(---------------------------------)
G(---------------0-4p2p0-----------)
D(---------0h2h4---------4p2p0-----)
A(-0h2h4-4---------------------4p2-)
E(---------------------------------)
                                                                                            
E(---------------------------------)
B(---------------------------------)
G(---------------0-5p3p0-----------)
D(---------0h3h5---------5p3p0-----)
A(-0h3h5-5---------------------5---)
E(---------------------------------)


E(-------------------------------)
B(-------------------------------)
G(---------------0-5h7p5p0-------)
D(---------0h5h7-----------7p5p0-)
A(-0h5h7-7-----------------------)
E(-------------------------------)


E(-------------------)
B(-------------------)
G(-------------------)
D(-7p5p0-------------)
A(-------6p5p0-----0-)
E(-------------6p4---)


E(------------------------------------------------)
B(------------------------------------------------)
G(------------------------------------------------)
D(-------------------------------b-------r--------)
A(-----------------0--0-0-0-1-3-3/(5)-(5)\3--b----)
E(-12\-1--1-1-1--3--------------------------3/(5)-)


E(-------------------------------------------------)
B(-------------------------------------------------)
G(-------------------------------------------------)
D(-----------------------------b-----b-----b-------)
A(----------------------0--2--3/(4)-4/(5)-5/(7)----)
E(-0--0-0-0--2-4--4-4-4----------------------------)
 Comments (click here to add a non-facebook comment)
Hey, your almost there. Check out my version of the time warp intro.
-pata320 | 2/1/2006
I made some changes and this is what I hear Brad play on the CD. On the first three licks he doubles the third note on the A string to keep licks in time. Thanks for the help.
-MattClark | 2/2/2006
Few parts are off. Nice tab though.
-pata320 | 2/2/2006
I agree with Matt that he does double up on the third note. Both of you are very close though...
-logansams | 2/2/2006
Alright, I've slowed down 2 different live versions of the time warp. Check it out on my tab.
-pata320 | 2/16/2006
Home | FAQs | Privacy | Terms | Advertise | Contact
Top 100 Tab Sites