Give Kudos?
Are you sure you want to give kudos to mooman2679?

Add To Songbook?
Are you sure you want to add this song to your songbook?


2,664 bands | 34,754 songs
Search: Register FREE! | Login
Browse Songs:
Browse Bands:
Tool Panel
Discuss This Song

1 2 3 4 5





Brad Paisley - Time Warp (blues Solo) (Solo)
Album: TIme Well Wasted (2005)
Submitter: mooman2679 (4) on 8/7/05 9 comments
Month Views: 14 | Total Views: 5,005
Sound Byte: Listen
Moderator: Ray Terry | Report This Song?
Song Tools

Comment

Songbook

Kudos

Show Chords

Print

From Brad's Upcoming Album...Time Well Wasted...

By far the craziest thing on guitar he has recorded...I think this is about the only part
in the song that a normal guitar picker can play...everything else is just....woo
(And this is probably my favorite part of it too)  

This blues part has some weird bends in it...I think they are done by a b bender or g-bender.  I'll make
a soundbyte for it soon to show what I mean...The bends are VERY difficult to be played without
the bender...so good luck with that...I have a bender on mine so i'm good to go.;)

I'm pretty sure most of this is correct...some may be in a more difficult position but most
should be right...

Please tell me if there is any typos!


The soundbyte has the full speed and a slowed down verson...I play some a 
little different speed than the recording and i mess up once...lol...good 
enough to get you started though!


Tyler

mooman2679 at gmail.com


.....................................................................

pbh = Pre-bend and hold

pbr = Pre-bend and Release

brb = Bend,release and bend

......................................................................




                b bender                                   b bender
                *********                                  ********
e---------------0----0-0---5-------------------------------------------
B---------------8pbh-8-8r---8p5--------------------------------5pbr~~--
G--9--9-9---5/9----------------7p5p0-7-5brbr---------5-4---5bh-5r--~~--
D--9--9-9---------------------------7-------7---5-6-7------------------
A--7--7-7-----------------------------------------------4br------------
E----------------------------------------------------------------------


e----5---------------------------------------10-10-10--10--8-7--7-5-5-5--
B--/5-------8-8-----8-8-----8-8-----8-8------10-10-10--10-10-7--7-5-5-5--
G-----5-5/9-9-9-5/9-9-9-5/9-9-9-5/9-9-9-9/12-----------------------------
D------------------------------------------------------------------------
A------------------------------------------------------------------------
E------------------------------------------------------------------------


e------17-15br-17--20br-20-17-20p17--17-15br-16p12--12-16-19p16-16-15br--
B--9/15----------17----------------20-------------12---------------------
G------------------------------------------------------------------------
D------------------------------------------------------------------------
A------------------------------------------------------------------------
E------------------------------------------------------------------------


e--14-13-12br--12p10-8h10brbr-x-------15-12--15--15--15--15-15-15--15-----------
B-------------------------------15br13-------16b-16b-16b-16b---16b-16b-12-15br\-
G-------------------------------------------------------------------------------
D-------------------------------------------------------------------------------
A-------------------------------------------------------------------------------
E-------------------------------------------------------------------------------


e-------0----------5-----------------------------------
B--------8p5p0------8p5--------------------------------
G--7p5p0------7p5p0----7p5p0-7-5brbr-------------------
D---------------------------7-------7---5--------------
A----------------------------------------5brbp3p0------
E------------------------------------------------3-5\--
 Comments (click here to add a non-facebook comment)
your insane dude how did you tab this? lol. awesome job, i download his new cd off torrents and it is f**kin kick ass
-KnoxGodoy3 | 8/7/2005
Thanks for the good comment!

I have his cd preordered but I couldn't stand to wait...So I just downloaded the instrumental.
-mooman2679 | 8/8/2005
Nice...a year and a half? Makes my 2 years feel like crap, lol. Keep up the good tabs dude...I haven't even heard this but I'm buying the cd the day it comes out. I can't imagine how good you'll be in another 2 years. Great job.
-mystikal1116 | 8/10/2005

-mystikal1116 | 8/10/2005
Sounding good man!!! I can tell you are improving a lot. Keep up the hard work bud!
-logansams | 8/11/2005
Thanks man
-mooman2679 | 8/11/2005
That's a great tab, thanks! Unfortunately, I don't have a bender so I can't play some of it.
-rookie159 | 10/29/2005
You wouldn't have to use a bender, it's harder without one...I really doubt Brad uses one on it..

-mooman2679 | 10/29/2005
I think the first run sounds more like this:
pre>
e-5----5--------------------------------
B-10r8~-8p5-----------5-----------------
G----------7brp5p0h5h7-5~~--------------
D-------------------------7-------------
A---------------------------------------
E---------------------------------------
/pre>

let me know what you guys think.
-stewo3 | 12/10/2005
Home | FAQs | Privacy | Terms | Advertise | Contact
Top 100 Tab Sites