Give Kudos?
Are you sure you want to give kudos to sweethomealabam?

Add To Songbook?
Are you sure you want to add this song to your songbook?


2,693 bands | 34,919 songs
Search: Register FREE! | Login
Browse Songs:
Browse Bands:
Tool Panel
Discuss This Song

1 2 3 4 5





Brad Paisley - Time Warp(1st Jazz Interlude) (Solo)
Album: TIme Well Wasted (2005)
Submitter: sweethomealabam (2) on 12/22/05
Month Views: 6 | Total Views: 3,269
Moderator: Ray Terry | Report This Song?
Song Tools

Comment

Songbook

Kudos

Show Chords

Print

Brad Paisley: Time Warp(1st Jazz Interlude)

Enjoy!

============================================================
/=slide                                 x=mute
p=pull-off                              h=hammer-on
============================================================

Guitarfan12 at aol.com

E------12---------------------------------------------------
B-----------------------------------------------------------
G-11/13--13-x-11----------------------------11/-14h16-/10---
D---------------14-13-11/13-----------------11/-14h15-------
A--------------------------16-16p14---------12/-------------
E----------------------------------12/14-12-----------------

E-----------------------------12----------------------------
B---------------------------12--x-16-x-15-x-14--------------
G-------------------11-11/13------------------14-x-13-11-x--
D-13-12-10-----11/13----------------------------------------
A---------13-12---------------------------------------------
E-----------------------------------------------------------

E----------------------------------------
B----------------------------------------
G-11/-x-13--11p9p0-----------------------
D-----------------11h12p11p0-------------
A---------------------------11h12p11p0---
E-------------------------------------12/

PLEASE COMMENT AND RATE
 Comments (click here to add a non-facebook comment)
Home | FAQs | Privacy | Terms | Advertise | Contact
Top 100 Tab Sites