Give Kudos?
Are you sure you want to give kudos to zunie?

Add To Songbook?
Are you sure you want to add this song to your songbook?


2,679 bands | 34,861 songs
Search: Register FREE! | Login
Browse Songs:
Browse Bands:
Tool Panel
Discuss This Song

1 2 3 4 5





Brad Paisley - Ticks Outro Solo (Solo)
Album: 5th Gear (Bonus Track) (2007)
Submitter: zunie (2) on 3/16/07
Month Views: 10 | Total Views: 6,199
Sound Byte: Listen
Moderator: Ray Terry | Report This Song?
Song Tools

Comment

Songbook

Kudos

Show Chords

Print

E----------------------------------------------------------
B----------------------------------------------------------
G--------4/6-4-2-4-----------------------------------------
D------------------4/6-4/6-4/2-4---------------------------
A-----0--------------------------2-2-----------------------
E-0-3b-------------------------------3-3-3-3-------

E----------------------------------------------------------
B-----------------------0-2-3-5-----5---3------------------
G-----------------0-2-4---------4~----4---2b-0---0---------
D--2--------0-2-4------------------------------4-----------
A-----0-3-4------------------------------------------------
E-3-3b-----------------------------------------------------

E---------------------------------------------------------------
B---------------------------------------------------------------
G-0-1-0---------------------------------------------------------
D-------2-1-0---------------------7-5-4-5-4p0-2p0---------------
A-------------2-1-0-------------------------------2p0-0h1p0-----
E-------------------2-3b(5)~-3/9---------------------------2b-0
 Comments (click here to add a non-facebook comment)
Home | FAQs | Privacy | Terms | Advertise | Contact
Top 100 Tab Sites